  0
SECTION
  2
HEADER
  9
$ACADVER
  1
AC1006
  9
$INSBASE
 10
0.0
 20
0.0
 30
0.0
  9
$EXTMIN
 10
-25.0
 20
-10.0
  9
$EXTMAX
 10
395.0
 20
287.0
  9
$LIMMIN
 10
-25.0
 20
-10.0
  9
$LIMMAX
 10
395.0
 20
287.0
  9
$ORTHOMODE
 70
     0
  9
$REGENMODE
 70
     1
  9
$FILLMODE
 70
     1
  9
$QTEXTMODE
 70
     0
  9
$MIRRTEXT
 70
     1
  9
$DRAGMODE
 70
     2
  9
$LTSCALE
 40
1.0
  9
$OSMODE
 70
     0
  9
$ATTMODE
 70
     1
  9
$TEXTSIZE
 40
3.0
  9
$TRACEWID
 40
0.5
  9
$TEXTSTYLE
  7
STANDARD
  9
$CLAYER
  8
0
  9
$CELTYPE
  6
BYLAYER
  9
$CECOLOR
 62
   256
  9
$DIMSCALE
 40
1.0
  9
$DIMASZ
 40
2.5
  9
$DIMEXO
 40
1.0
  9
$DIMDLI
 40
5.0
  9
$DIMRND
 40
0.0
  9
$DIMDLE
 40
3.0
  9
$DIMEXE
 40
1.0
  9
$DIMTP
 40
0.0
  9
$DIMTM
 40
0.0
  9
$DIMTXT
 40
2.5
  9
$DIMCEN
 40
2.0
  9
$DIMTSZ
 40
0.0
  9
$DIMTOL
 70
     0
  9
$DIMLIM
 70
     0
  9
$DIMTIH
 70
     0
  9
$DIMTOH
 70
     0
  9
$DIMSE1
 70
     0
  9
$DIMSE2
 70
     0
  9
$DIMTAD
 70
     1
  9
$DIMZIN
 70
     8
  9
$DIMBLK
  1

  9
$DIMASO
 70
     1
  9
$DIMSHO
 70
     0
  9
$DIMPOST
  1

  9
$DIMAPOST
  1

  9
$DIMALT
 70
     0
  9
$DIMALTD
 70
     4
  9
$DIMALTF
 40
25.4
  9
$DIMLFAC
 40
1.0
  9
$DIMTOFL
 70
     1
  9
$DIMTVP
 40
1.0
  9
$DIMTIX
 70
     0
  9
$DIMSOXD
 70
     0
  9
$DIMSAH
 70
     0
  9
$DIMBLK1
  1

  9
$DIMBLK2
  1

  9
$LUNITS
 70
     2
  9
$LUPREC
 70
     4
  9
$AXISMODE
 70
     0
  9
$AXISUNIT
 10
0.0
 20
0.0
  9
$SKETCHINC
 40
1.0
  9
$FILLETRAD
 40
0.0
  9
$AUNITS
 70
     0
  9
$AUPREC
 70
     0
  9
$MENU
  1
acad
  9
$ELEVATION
 40
0.0
  9
$THICKNESS
 40
0.0
  9
$LIMCHECK
 70
     0
  9
$BLIPMODE
 70
     1
  9
$CHAMFERA
 40
0.0
  9
$CHAMFERB
 40
0.0
  9
$SKPOLY
 70
     0
  9
$TDCREATE
 40
2454681.210706018
  9
$TDUPDATE
 40
2454681.210706018
  9
$TDINDWG
 40
0.0
  9
$TDUSRTIMER
 40
0.0
  9
$USRTIMER
 70
     1
  9
$ANGBASE
 50
0.0
  9
$ANGDIR
 70
     0
  9
$PDMODE
 70
     0
  9
$PDSIZE
 40
0.0
  9
$PLINEWID
 40
0.0
  9
$COORDS
 70
     0
  9
$SPLFRAME
 70
     0
  9
$SPLINETYPE
 70
     6
  9
$SPLINESEGS
 70
     8
  9
$ATTDIA
 70
     0
  9
$ATTREQ
 70
     1
  9
$HANDLING
 70
     0
  9
$HANDSEED
  5
0
  9
$SURFTAB1
 70
     6
  9
$SURFTAB2
 70
     6
  9
$SURFTYPE
 70
     6
  9
$SURFU
 70
     6
  9
$SURFV
 70
     6
  9
$FLATLAND
 70
     0
  9
$UCSNAME
  2

  9
$UCSORG
 10
0.0
 20
0.0
 30
0.0
  9
$UCSXDIR
 10
1.0
 20
0.0
 30
0.0
  9
$UCSYDIR
 10
0.0
 20
1.0
 30
0.0
  9
$USERI1
 70
     0
  9
$USERI2
 70
     0
  9
$USERI3
 70
     0
  9
$USERI4
 70
     0
  9
$USERI5
 70
     0
  9
$USERR1
 40
0.0
  9
$USERR2
 40
0.0
  9
$USERR3
 40
0.0
  9
$USERR4
 40
0.0
  9
$USERR5
 40
0.0
  9
$WORLDVIEW
 70
     1
  0
ENDSEC
  0
SECTION
  2
TABLES
  0
TABLE
  2
VPORT
 70
     1
  0
VPORT
  2
*ACTIVE
 70
     0
 10
0.0
 20
0.0
 11
1.0
 21
1.0
 12
185.0
 22
138.5
 13
0.0
 23
0.0
 14
0.0
 24
0.0
 15
0.0
 25
0.0
 16
0.0
 26
0.0
 36
1.0
 17
0.0
 27
0.0
 37
0.0
 40
297.0
 41
1.5
 42
50.0
 43
0.0
 44
0.0
 50
0.0
 51
0.0
 71
     0
 72
   100
 73
     1
 74
     1
 75
     0
 76
     0
 77
     0
 78
     0
  0
ENDTAB
  0
TABLE
  2
LTYPE
 70
    20
  0
LTYPE
  2
CONTINUOUS
 70
    64
  3
solid line
 72
    65
 73
     0
 40
0.0
  0
LTYPE
  2
CENTER
 70
    64
  3
--- - --- - --- - --- - --- -
 72
    65
 73
     4
 40
6.0
 49
3.0
 49
-1.0
 49
1.0
 49
-1.0
  0
LTYPE
  2
PHANTOM
 70
    64
  3
----- - - ----- - - ----- - -
 72
    65
 73
     6
 40
12.0
 49
7.0
 49
-1.0
 49
1.0
 49
-1.0
 49
1.0
 49
-1.0
  0
ENDTAB
  0
TABLE
  2
LAYER
 70
    20
  0
LAYER
  2
0
 70
    64
 62
     7
  6
CONTINUOUS
  0
LAYER
  2
PIC11
 70
    64
 62
     7
  6
CONTINUOUS
  0
LAYER
  2
PIC13
 70
    64
 62
     7
  6
CONTINUOUS
  0
LAYER
  2
PIC15
 70
    64
 62
     7
  6
CONTINUOUS
  0
LAYER
  2
PIC18
 70
    64
 62
     7
  6
CONTINUOUS
  0
LAYER
  2
PIC19
 70
    64
 62
     7
  6
CONTINUOUS
  0
LAYER
  2
PIC43
 70
    64
 62
     7
  6
CONTINUOUS
  0
LAYER
  2
PIC44
 70
    64
 62
     7
  6
CONTINUOUS
  0
LAYER
  2
DRAW1
 70
    64
 62
     7
  6
CONTINUOUS
  0
ENDTAB
  0
TABLE
  2
STYLE
 70
     4
  0
STYLE
  2
STANDARD
 70
    64
 40
0.0
 41
1.0
 50
0.0
 71
     0
 42
3.0
  3
monotxt
  4
extfont
  0
ENDTAB
  0
TABLE
  2
VIEW
 70
     0
  0
ENDTAB
  0
TABLE
  2
UCS
 70
     0
  0
ENDTAB
  0
TABLE
  2
DWGMGR
 70
     0
  0
ENDTAB
  0
ENDSEC
  0
SECTION
  2
BLOCKS
  0
BLOCK
  8
0
  2
MARK1_1
 70
    64
 10
0.0
 20
0.0
  0
LINE
  8
0
  6
CONTINUOUS
 62
     0
 10
1.0
 20
-0.25
 11
0.0
 21
0.0
  0
LINE
  8
0
  6
CONTINUOUS
 62
     0
 10
0.0
 20
0.0
 11
1.0
 21
0.25
  0
ENDBLK
  8
0
  0
BLOCK
  8
PIC11
  2
SUB1
 70
    64
 10
0.0
 20
0.0
  0
LINE
  8
PIC11
  6
CONTINUOUS
 62
     7
 10
-0.5499945089220925
 20
0.0
 11
-0.5499945089220925
 21
-11.14855319453107
  0
LINE
  8
PIC11
  6
CONTINUOUS
 62
     7
 10
0.5499945089220925
 20
0.0
 11
0.5499945089220925
 21
-11.14855319453107
  0
LINE
  8
PIC11
  6
CONTINUOUS
 62
     7
 10
-0.5499945089220925
 20
-11.14855319453107
 11
0.0
 21
-12.47635739720167
  0
LINE
  8
PIC11
  6
CONTINUOUS
 62
     7
 10
0.5499945089220925
 20
-11.14855319453107
 11
0.0
 21
-12.47635739720167
  0
LINE
  8
PIC11
  6
CONTINUOUS
 62
     7
 10
0.07148839632039608
 20
0.0
 11
-0.7499925121665001
 21
-0.4742822236490483
  0
LINE
  8
PIC11
  6
CONTINUOUS
 62
     7
 10
0.7499925121665001
 20
-0.1856099711226925
 11
-0.7499925121665001
 21
-1.051626728701758
  0
LINE
  8
PIC11
  6
CONTINUOUS
 62
     7
 10
0.7499925121665001
 20
-0.7629544761754017
 11
-0.7499925121665001
 21
-1.628971233754467
  0
LINE
  8
PIC11
  6
CONTINUOUS
 62
     7
 10
0.7499925121665001
 20
-1.340298981228111
 11
-0.7499925121665001
 21
-2.206315738807179
  0
LINE
  8
PIC11
  6
CONTINUOUS
 62
     7
 10
0.7499925121665001
 20
-1.917643486280823
 11
-0.7499925121665001
 21
-2.783660243859888
  0
LINE
  8
PIC11
  6
CONTINUOUS
 62
     7
 10
0.7499925121665001
 20
-2.494987991333532
 11
-0.7499925121665001
 21
-3.361004748912597
  0
LINE
  8
PIC11
  6
CONTINUOUS
 62
     7
 10
0.7499925121665001
 20
-3.072332496386244
 11
-0.7499925121665001
 21
-3.938349253965308
  0
LINE
  8
PIC11
  6
CONTINUOUS
 62
     7
 10
0.7499925121665001
 20
-3.649677001438953
 11
-0.7499925121665001
 21
-4.515693759018018
  0
LINE
  8
PIC11
  6
CONTINUOUS
 62
     7
 10
0.7499925121665001
 20
-4.227021506491662
 11
-0.7499925121665001
 21
-5.093038264070727
  0
LINE
  8
PIC11
  6
CONTINUOUS
 62
     7
 10
0.7499925121665001
 20
-4.804366011544369
 11
-0.7499925121665001
 21
-5.670382769123433
  0
LINE
  8
PIC11
  6
CONTINUOUS
 62
     7
 10
0.7499925121665001
 20
-5.381710516597081
 11
-0.7499925121665001
 21
-6.247727274176145
  0
LINE
  8
PIC11
  6
CONTINUOUS
 62
     7
 10
0.7499925121665001
 20
-5.959055021649792
 11
-0.7499925121665001
 21
-6.825071779228857
  0
LINE
  8
PIC11
  6
CONTINUOUS
 62
     7
 10
0.7499925121665001
 20
-6.536399526702502
 11
-0.7499925121665001
 21
-7.402416284281566
  0
LINE
  8
PIC11
  6
CONTINUOUS
 62
     7
 10
0.7499925121665001
 20
-7.113744031755211
 11
-0.7499925121665001
 21
-7.979760789334275
  0
LINE
  8
PIC11
  6
CONTINUOUS
 62
     7
 10
0.7499925121665001
 20
-7.691088536807922
 11
-0.7499925121665001
 21
-8.557105294386988
  0
LINE
  8
PIC11
  6
CONTINUOUS
 62
     7
 10
0.7499925121665001
 20
-8.26843304186063
 11
-0.7499925121665001
 21
-9.134449799439697
  0
LINE
  8
PIC11
  6
CONTINUOUS
 62
     7
 10
0.7499925121665001
 20
-8.845777546913343
 11
-0.7499925121665001
 21
-9.711794304492408
  0
LINE
  8
PIC11
  6
CONTINUOUS
 62
     7
 10
0.7499925121665001
 20
-9.423122051966052
 11
-0.7499925121665001
 21
-10.28913880954512
  0
LINE
  8
PIC11
  6
CONTINUOUS
 62
     7
 10
0.7499925121665001
 20
-10.00046655701876
 11
-0.7499925121665001
 21
-10.86648331459783
  0
LINE
  8
PIC11
  6
CONTINUOUS
 62
     7
 10
0.7499925121665001
 20
-10.57781106207147
 11
-0.6645881674129962
 21
-11.39451959821714
  0
LINE
  8
PIC11
  6
CONTINUOUS
 62
     7
 10
0.7499925121665001
 20
-11.15515556712418
 11
-0.4715972979014201
 21
-11.8604407728062
  0
LINE
  8
PIC11
  6
CONTINUOUS
 62
     7
 10
0.4537457509793223
 20
-11.90353821949486
 11
-0.2786064283898441
 21
-12.32636194739526
  0
LINE
  8
PIC11
  6
CONTINUOUS
 62
     7
 10
0.07148839632039608
 20
0.0
 11
-0.7499925121665001
 21
-0.4742822236490477
  0
ENDBLK
  8
PIC11
  0
BLOCK
  8
PIC11
  2
SUB2
 70
    64
 10
0.0
 20
0.0
  0
LINE
  8
PIC11
  6
CONTINUOUS
 62
     7
 10
-0.5499945089220996
 20
0.0
 11
-0.5499945089220996
 21
-11.14855319453107
  0
LINE
  8
PIC11
  6
CONTINUOUS
 62
     7
 10
0.5499945089220996
 20
0.0
 11
0.5499945089220996
 21
-11.14855319453107
  0
LINE
  8
PIC11
  6
CONTINUOUS
 62
     7
 10
-0.5499945089220996
 20
-11.14855319453107
 11
0.0
 21
-12.47635739720167
  0
LINE
  8
PIC11
  6
CONTINUOUS
 62
     7
 10
0.5499945089220996
 20
-11.14855319453107
 11
0.0
 21
-12.47635739720167
  0
LINE
  8
PIC11
  6
CONTINUOUS
 62
     7
 10
0.07148839632039608
 20
0.0
 11
-0.7499925121665001
 21
-0.4742822236490483
  0
LINE
  8
PIC11
  6
CONTINUOUS
 62
     7
 10
0.7499925121665001
 20
-0.1856099711226925
 11
-0.7499925121665001
 21
-1.051626728701758
  0
LINE
  8
PIC11
  6
CONTINUOUS
 62
     7
 10
0.7499925121665001
 20
-0.7629544761754017
 11
-0.7499925121665001
 21
-1.628971233754467
  0
LINE
  8
PIC11
  6
CONTINUOUS
 62
     7
 10
0.7499925121665001
 20
-1.340298981228111
 11
-0.7499925121665001
 21
-2.206315738807179
  0
LINE
  8
PIC11
  6
CONTINUOUS
 62
     7
 10
0.7499925121665001
 20
-1.917643486280823
 11
-0.7499925121665001
 21
-2.783660243859888
  0
LINE
  8
PIC11
  6
CONTINUOUS
 62
     7
 10
0.7499925121665001
 20
-2.494987991333532
 11
-0.7499925121665001
 21
-3.361004748912597
  0
LINE
  8
PIC11
  6
CONTINUOUS
 62
     7
 10
0.7499925121665001
 20
-3.072332496386244
 11
-0.7499925121665001
 21
-3.938349253965308
  0
LINE
  8
PIC11
  6
CONTINUOUS
 62
     7
 10
0.7499925121665001
 20
-3.649677001438953
 11
-0.7499925121665001
 21
-4.515693759018018
  0
LINE
  8
PIC11
  6
CONTINUOUS
 62
     7
 10
0.7499925121665001
 20
-4.227021506491662
 11
-0.7499925121665001
 21
-5.093038264070727
  0
LINE
  8
PIC11
  6
CONTINUOUS
 62
     7
 10
0.7499925121665001
 20
-4.804366011544369
 11
-0.7499925121665001
 21
-5.670382769123433
  0
LINE
  8
PIC11
  6
CONTINUOUS
 62
     7
 10
0.7499925121665001
 20
-5.381710516597081
 11
-0.7499925121665001
 21
-6.247727274176145
  0
LINE
  8
PIC11
  6
CONTINUOUS
 62
     7
 10
0.7499925121665001
 20
-5.959055021649792
 11
-0.7499925121665001
 21
-6.825071779228857
  0
LINE
  8
PIC11
  6
CONTINUOUS
 62
     7
 10
0.7499925121665001
 20
-6.536399526702502
 11
-0.7499925121665001
 21
-7.402416284281566
  0
LINE
  8
PIC11
  6
CONTINUOUS
 62
     7
 10
0.7499925121665001
 20
-7.113744031755211
 11
-0.7499925121665001
 21
-7.979760789334275
  0
LINE
  8
PIC11
  6
CONTINUOUS
 62
     7
 10
0.7499925121665001
 20
-7.691088536807922
 11
-0.7499925121665001
 21
-8.557105294386988
  0
LINE
  8
PIC11
  6
CONTINUOUS
 62
     7
 10
0.7499925121665001
 20
-8.26843304186063
 11
-0.7499925121665001
 21
-9.134449799439697
  0
LINE
  8
PIC11
  6
CONTINUOUS
 62
     7
 10
0.7499925121665001
 20
-8.845777546913343
 11
-0.7499925121665001
 21
-9.711794304492408
  0
LINE
  8
PIC11
  6
CONTINUOUS
 62
     7
 10
0.7499925121665001
 20
-9.423122051966052
 11
-0.7499925121665001
 21
-10.28913880954512
  0
LINE
  8
PIC11
  6
CONTINUOUS
 62
     7
 10
0.7499925121665001
 20
-10.00046655701876
 11
-0.7499925121665001
 21
-10.86648331459783
  0
LINE
  8
PIC11
  6
CONTINUOUS
 62
     7
 10
0.7499925121665001
 20
-10.57781106207147
 11
-0.6645881674129938
 21
-11.39451959821714
  0
LINE
  8
PIC11
  6
CONTINUOUS
 62
     7
 10
0.7499925121665001
 20
-11.15515556712418
 11
-0.4715972979014213
 21
-11.8604407728062
  0
LINE
  8
PIC11
  6
CONTINUOUS
 62
     7
 10
0.4537457509793282
 20
-11.90353821949486
 11
-0.2786064283898476
 21
-12.32636194739526
  0
LINE
  8
PIC11
  6
CONTINUOUS
 62
     7
 10
0.07148839632039608
 20
0.0
 11
-0.7499925121665001
 21
-0.4742822236490477
  0
ENDBLK
  8
PIC11
  0
BLOCK
  8
PIC11
  2
SUB3
 70
    64
 10
0.0
 20
0.0
  0
LINE
  8
PIC11
  6
CONTINUOUS
 62
     7
 10
-0.5499945089220925
 20
0.0
 11
-0.5499945089220925
 21
-11.14855319453107
  0
LINE
  8
PIC11
  6
CONTINUOUS
 62
     7
 10
0.5499945089220925
 20
0.0
 11
0.5499945089220925
 21
-11.14855319453107
  0
LINE
  8
PIC11
  6
CONTINUOUS
 62
     7
 10
-0.5499945089220925
 20
-11.14855319453107
 11
0.0
 21
-12.47635739720167
  0
LINE
  8
PIC11
  6
CONTINUOUS
 62
     7
 10
0.5499945089220925
 20
-11.14855319453107
 11
0.0
 21
-12.47635739720167
  0
LINE
  8
PIC11
  6
CONTINUOUS
 62
     7
 10
0.07148839632039608
 20
0.0
 11
-0.7499925121665001
 21
-0.4742822236490483
  0
LINE
  8
PIC11
  6
CONTINUOUS
 62
     7
 10
0.7499925121665001
 20
-0.1856099711226925
 11
-0.7499925121665001
 21
-1.051626728701758
  0
LINE
  8
PIC11
  6
CONTINUOUS
 62
     7
 10
0.7499925121665001
 20
-0.7629544761754017
 11
-0.7499925121665001
 21
-1.628971233754467
  0
LINE
  8
PIC11
  6
CONTINUOUS
 62
     7
 10
0.7499925121665001
 20
-1.340298981228111
 11
-0.7499925121665001
 21
-2.206315738807179
  0
LINE
  8
PIC11
  6
CONTINUOUS
 62
     7
 10
0.7499925121665001
 20
-1.917643486280823
 11
-0.7499925121665001
 21
-2.783660243859888
  0
LINE
  8
PIC11
  6
CONTINUOUS
 62
     7
 10
0.7499925121665001
 20
-2.494987991333532
 11
-0.7499925121665001
 21
-3.361004748912597
  0
LINE
  8
PIC11
  6
CONTINUOUS
 62
     7
 10
0.7499925121665001
 20
-3.072332496386244
 11
-0.7499925121665001
 21
-3.938349253965308
  0
LINE
  8
PIC11
  6
CONTINUOUS
 62
     7
 10
0.7499925121665001
 20
-3.649677001438953
 11
-0.7499925121665001
 21
-4.515693759018018
  0
LINE
  8
PIC11
  6
CONTINUOUS
 62
     7
 10
0.7499925121665001
 20
-4.227021506491662
 11
-0.7499925121665001
 21
-5.093038264070727
  0
LINE
  8
PIC11
  6
CONTINUOUS
 62
     7
 10
0.7499925121665001
 20
-4.804366011544369
 11
-0.7499925121665001
 21
-5.670382769123433
  0
LINE
  8
PIC11
  6
CONTINUOUS
 62
     7
 10
0.7499925121665001
 20
-5.381710516597081
 11
-0.7499925121665001
 21
-6.247727274176145
  0
LINE
  8
PIC11
  6
CONTINUOUS
 62
     7
 10
0.7499925121665001
 20
-5.959055021649792
 11
-0.7499925121665001
 21
-6.825071779228857
  0
LINE
  8
PIC11
  6
CONTINUOUS
 62
     7
 10
0.7499925121665001
 20
-6.536399526702502
 11
-0.7499925121665001
 21
-7.402416284281566
  0
LINE
  8
PIC11
  6
CONTINUOUS
 62
     7
 10
0.7499925121665001
 20
-7.113744031755211
 11
-0.7499925121665001
 21
-7.979760789334275
  0
LINE
  8
PIC11
  6
CONTINUOUS
 62
     7
 10
0.7499925121665001
 20
-7.691088536807922
 11
-0.7499925121665001
 21
-8.557105294386988
  0
LINE
  8
PIC11
  6
CONTINUOUS
 62
     7
 10
0.7499925121665001
 20
-8.26843304186063
 11
-0.7499925121665001
 21
-9.134449799439697
  0
LINE
  8
PIC11
  6
CONTINUOUS
 62
     7
 10
0.7499925121665001
 20
-8.845777546913343
 11
-0.7499925121665001
 21
-9.711794304492408
  0
LINE
  8
PIC11
  6
CONTINUOUS
 62
     7
 10
0.7499925121665001
 20
-9.423122051966052
 11
-0.7499925121665001
 21
-10.28913880954512
  0
LINE
  8
PIC11
  6
CONTINUOUS
 62
     7
 10
0.7499925121665001
 20
-10.00046655701876
 11
-0.7499925121665001
 21
-10.86648331459783
  0
LINE
  8
PIC11
  6
CONTINUOUS
 62
     7
 10
0.7499925121665001
 20
-10.57781106207147
 11
-0.6645881674129962
 21
-11.39451959821714
  0
LINE
  8
PIC11
  6
CONTINUOUS
 62
     7
 10
0.7499925121665001
 20
-11.15515556712418
 11
-0.4715972979014201
 21
-11.8604407728062
  0
LINE
  8
PIC11
  6
CONTINUOUS
 62
     7
 10
0.4537457509793223
 20
-11.90353821949486
 11
-0.2786064283898441
 21
-12.32636194739526
  0
LINE
  8
PIC11
  6
CONTINUOUS
 62
     7
 10
0.07148839632039608
 20
0.0
 11
-0.7499925121665001
 21
-0.4742822236490477
  0
ENDBLK
  8
PIC11
  0
BLOCK
  8
PIC11
  2
SUB4
 70
    64
 10
0.0
 20
0.0
  0
LINE
  8
PIC11
  6
CONTINUOUS
 62
     7
 10
-0.5499945089220996
 20
0.0
 11
-0.5499945089220996
 21
-11.14855319453107
  0
LINE
  8
PIC11
  6
CONTINUOUS
 62
     7
 10
0.5499945089220996
 20
0.0
 11
0.5499945089220996
 21
-11.14855319453107
  0
LINE
  8
PIC11
  6
CONTINUOUS
 62
     7
 10
-0.5499945089220996
 20
-11.14855319453107
 11
0.0
 21
-12.47635739720167
  0
LINE
  8
PIC11
  6
CONTINUOUS
 62
     7
 10
0.5499945089220996
 20
-11.14855319453107
 11
0.0
 21
-12.47635739720167
  0
LINE
  8
PIC11
  6
CONTINUOUS
 62
     7
 10
0.07148839632039608
 20
0.0
 11
-0.7499925121665001
 21
-0.4742822236490483
  0
LINE
  8
PIC11
  6
CONTINUOUS
 62
     7
 10
0.7499925121665001
 20
-0.1856099711226925
 11
-0.7499925121665001
 21
-1.051626728701758
  0
LINE
  8
PIC11
  6
CONTINUOUS
 62
     7
 10
0.7499925121665001
 20
-0.7629544761754017
 11
-0.7499925121665001
 21
-1.628971233754467
  0
LINE
  8
PIC11
  6
CONTINUOUS
 62
     7
 10
0.7499925121665001
 20
-1.340298981228111
 11
-0.7499925121665001
 21
-2.206315738807179
  0
LINE
  8
PIC11
  6
CONTINUOUS
 62
     7
 10
0.7499925121665001
 20
-1.917643486280823
 11
-0.7499925121665001
 21
-2.783660243859888
  0
LINE
  8
PIC11
  6
CONTINUOUS
 62
     7
 10
0.7499925121665001
 20
-2.494987991333532
 11
-0.7499925121665001
 21
-3.361004748912597
  0
LINE
  8
PIC11
  6
CONTINUOUS
 62
     7
 10
0.7499925121665001
 20
-3.072332496386244
 11
-0.7499925121665001
 21
-3.938349253965308
  0
LINE
  8
PIC11
  6
CONTINUOUS
 62
     7
 10
0.7499925121665001
 20
-3.649677001438953
 11
-0.7499925121665001
 21
-4.515693759018018
  0
LINE
  8
PIC11
  6
CONTINUOUS
 62
     7
 10
0.7499925121665001
 20
-4.227021506491662
 11
-0.7499925121665001
 21
-5.093038264070727
  0
LINE
  8
PIC11
  6
CONTINUOUS
 62
     7
 10
0.7499925121665001
 20
-4.804366011544369
 11
-0.7499925121665001
 21
-5.670382769123433
  0
LINE
  8
PIC11
  6
CONTINUOUS
 62
     7
 10
0.7499925121665001
 20
-5.381710516597081
 11
-0.7499925121665001
 21
-6.247727274176145
  0
LINE
  8
PIC11
  6
CONTINUOUS
 62
     7
 10
0.7499925121665001
 20
-5.959055021649792
 11
-0.7499925121665001
 21
-6.825071779228857
  0
LINE
  8
PIC11
  6
CONTINUOUS
 62
     7
 10
0.7499925121665001
 20
-6.536399526702502
 11
-0.7499925121665001
 21
-7.402416284281566
  0
LINE
  8
PIC11
  6
CONTINUOUS
 62
     7
 10
0.7499925121665001
 20
-7.113744031755211
 11
-0.7499925121665001
 21
-7.979760789334275
  0
LINE
  8
PIC11
  6
CONTINUOUS
 62
     7
 10
0.7499925121665001
 20
-7.691088536807922
 11
-0.7499925121665001
 21
-8.557105294386988
  0
LINE
  8
PIC11
  6
CONTINUOUS
 62
     7
 10
0.7499925121665001
 20
-8.26843304186063
 11
-0.7499925121665001
 21
-9.134449799439697
  0
LINE
  8
PIC11
  6
CONTINUOUS
 62
     7
 10
0.7499925121665001
 20
-8.845777546913343
 11
-0.7499925121665001
 21
-9.711794304492408
  0
LINE
  8
PIC11
  6
CONTINUOUS
 62
     7
 10
0.7499925121665001
 20
-9.423122051966052
 11
-0.7499925121665001
 21
-10.28913880954512
  0
LINE
  8
PIC11
  6
CONTINUOUS
 62
     7
 10
0.7499925121665001
 20
-10.00046655701876
 11
-0.7499925121665001
 21
-10.86648331459783
  0
LINE
  8
PIC11
  6
CONTINUOUS
 62
     7
 10
0.7499925121665001
 20
-10.57781106207147
 11
-0.6645881674129938
 21
-11.39451959821714
  0
LINE
  8
PIC11
  6
CONTINUOUS
 62
     7
 10
0.7499925121665001
 20
-11.15515556712418
 11
-0.4715972979014213
 21
-11.8604407728062
  0
LINE
  8
PIC11
  6
CONTINUOUS
 62
     7
 10
0.4537457509793282
 20
-11.90353821949486
 11
-0.2786064283898476
 21
-12.32636194739526
  0
LINE
  8
PIC11
  6
CONTINUOUS
 62
     7
 10
0.07148839632039608
 20
0.0
 11
-0.7499925121665001
 21
-0.4742822236490477
  0
ENDBLK
  8
PIC11
  0
BLOCK
  8
PIC11
  2
SUB5
 70
    64
 10
0.0
 20
0.0
  0
INSERT
  8
PIC11
  6
CONTINUOUS
 62
     7
  2
SUB6
 10
0.0
 20
21.66645035147667
 41
1.0
 42
1.0
 50
0.0
  0
INSERT
  8
PIC11
  6
CONTINUOUS
 62
     7
  2
SUB7
 10
0.0
 20
0.0
 41
1.0
 42
1.0
 50
0.0
  0
INSERT
  8
PIC11
  6
CONTINUOUS
 62
     7
  2
SUB8
 10
-23.33310037851335
 20
21.66645035147667
 41
1.0
 42
1.0
 50
0.0
  0
INSERT
  8
PIC11
  6
CONTINUOUS
 62
     7
  2
SUB9
 10
-23.33310037851335
 20
21.66645035147667
 41
1.0
 42
1.0
 50
0.0
  0
INSERT
  8
PIC11
  6
CONTINUOUS
 62
     7
  2
SUB10
 10
149.9985024333
 20
0.0
 41
1.0
 42
1.0
 50
0.0
  0
INSERT
  8
PIC11
  6
CONTINUOUS
 62
     7
  2
SUB11
 10
173.3316028118134
 20
21.66645035147667
 41
1.0
 42
1.0
 50
0.0
  0
INSERT
  8
PIC11
  6
CONTINUOUS
 62
     7
  2
SUB12
 10
149.9985024333
 20
21.66645035147667
 41
1.0
 42
1.0
 50
0.0
  0
ENDBLK
  8
PIC11
  0
BLOCK
  8
PIC11
  2
SUB6
 70
    64
 10
0.0
 20
0.0
  0
LINE
  8
PIC11
  6
CONTINUOUS
 62
     7
 10
-1.499985024333
 20
-3.872944679201489
 11
1.499985024333
 21
-3.872944679201489
  0
LINE
  8
PIC11
  6
CONTINUOUS
 62
     7
 10
1.499985024333
 20
-3.872944679201489
 11
1.499985024333
 21
-18.66648030281067
  0
LINE
  8
PIC11
  6
CONTINUOUS
 62
     7
 10
-1.499985024333
 20
-3.872944679201489
 11
-1.499985024333
 21
-18.66648030281067
  0
ENDBLK
  8
PIC11
  0
BLOCK
  8
PIC11
  2
SUB7
 70
    64
 10
0.0
 20
0.0
  0
LINE
  8
PIC11
  6
CONTINUOUS
 62
     7
 10
-9.833235159516333
 20
0.0
 11
9.833235159516333
 21
0.0
  0
LINE
  8
PIC11
  6
CONTINUOUS
 62
     7
 10
9.999900162220001
 20
0.1666650027036667
 11
9.999900162220001
 21
2.799972045421602
  0
LINE
  8
PIC11
  6
CONTINUOUS
 62
     7
 10
-9.7999021589756
 20
2.999970048666
 11
9.7999021589756
 21
2.999970048666
  0
ARC
  8
PIC11
  6
CONTINUOUS
 62
     7
 10
9.7999021589756
 20
2.799972045421602
 40
0.1999980032443999
 50
0.0
 51
90.0
  0
ARC
  8
PIC11
  6
CONTINUOUS
 62
     7
 10
-9.7999021589756
 20
2.799972045421602
 40
0.1999980032443999
 50
90.0
 51
180.0
  0
LINE
  8
PIC11
  6
CONTINUOUS
 62
     7
 10
-9.999900162220001
 20
0.1666650027036667
 11
-9.999900162220001
 21
2.799972045421602
  0
ARC
  8
PIC11
  6
CONTINUOUS
 62
     7
 10
9.833235159516335
 20
0.1666650027036667
 40
0.1666650027036667
 50
270.0
 51
0.0
  0
ARC
  8
PIC11
  6
CONTINUOUS
 62
     7
 10
-9.833235159516335
 20
0.1666650027036667
 40
0.1666650027036667
 50
180.0
 51
270.0
  0
ENDBLK
  8
PIC11
  0
BLOCK
  8
PIC11
  2
SUB8
 70
    64
 10
0.0
 20
0.0
  0
LINE
  8
PIC11
  6
CONTINUOUS
 62
     7
 10
0.0
 20
5.333280086517334
 11
0.0
 21
-5.333280086517334
  0
LINE
  8
PIC11
  6
CONTINUOUS
 62
     7
 10
-1.666650027036667
 20
4.833285078406334
 11
-1.666650027036667
 21
-4.833285078406334
  0
LINE
  8
PIC11
  6
CONTINUOUS
 62
     7
 10
0.0
 20
5.333280086517334
 11
-1.166655018925667
 21
5.333280086517334
  0
LINE
  8
PIC11
  6
CONTINUOUS
 62
     7
 10
0.0
 20
-5.333280086517334
 11
-1.166655018925667
 21
-5.333280086517334
  0
ARC
  8
PIC11
  6
CONTINUOUS
 62
     7
 10
-1.166655018925667
 20
-4.833285078406334
 40
0.4999950081110001
 50
180.0
 51
270.0
  0
ARC
  8
PIC11
  6
CONTINUOUS
 62
     7
 10
-1.166655018925667
 20
4.833285078406334
 40
0.4999950081110001
 50
90.0
 51
180.0
  0
ENDBLK
  8
PIC11
  0
BLOCK
  8
PIC11
  2
SUB9
 70
    64
 10
0.0
 20
0.0
  0
LINE
  8
PIC11
  6
CONTINUOUS
 62
     7
 10
0.0
 20
5.333280086517334
 11
39.91626814752817
 21
5.333280086517334
  0
LINE
  8
PIC11
  6
CONTINUOUS
 62
     7
 10
0.0
 20
-5.333280086517334
 11
21.83311535418035
 21
-5.333280086517334
  0
LINE
  8
PIC11
  6
CONTINUOUS
 62
     7
 10
24.83308540284635
 20
-5.333280086517334
 11
39.91626814752817
 21
-5.333280086517334
  0
LINE
  8
PIC11
  6
CONTINUOUS
 62
     7
 10
196.6647031903267
 20
-5.333280086517334
 11
196.6647031903267
 21
5.333280086517334
  0
LINE
  8
PIC11
  6
CONTINUOUS
 62
     7
 10
156.6651025414467
 20
-5.249947585165505
 11
156.6651025414467
 21
5.249947585165501
  0
LINE
  8
PIC11
  6
CONTINUOUS
 62
     7
 10
156.5817700400949
 20
-5.333280086517334
 11
156.5817700400949
 21
5.333280086517334
  0
LINE
  8
PIC11
  6
CONTINUOUS
 62
     7
 10
156.7484350427985
 20
-5.333280086517334
 11
156.7484350427985
 21
5.333280086517334
  0
LINE
  8
PIC11
  6
CONTINUOUS
 62
     7
 10
156.6651025414467
 20
5.249947585165505
 11
156.7484350427985
 21
5.333280086517338
  0
LINE
  8
PIC11
  6
CONTINUOUS
 62
     7
 10
156.5817700400949
 20
5.333280086517334
 11
156.6651025414467
 21
5.249947585165505
  0
LINE
  8
PIC11
  6
CONTINUOUS
 62
     7
 10
156.7484350427985
 20
5.333280086517338
 11
196.6647031903267
 21
5.333280086517338
  0
LINE
  8
PIC11
  6
CONTINUOUS
 62
     7
 10
156.5817700400949
 20
-5.333280086517334
 11
156.6651025414467
 21
-5.249947585165503
  0
LINE
  8
PIC11
  6
CONTINUOUS
 62
     7
 10
156.6651025414467
 20
-5.249947585165505
 11
156.7484350427985
 21
-5.333280086517338
  0
LINE
  8
PIC11
  6
CONTINUOUS
 62
     7
 10
156.7484350427985
 20
-5.333280086517338
 11
171.8316177874804
 21
-5.333280086517338
  0
LINE
  8
PIC11
  6
CONTINUOUS
 62
     7
 10
174.8315878361464
 20
-5.333280086517338
 11
196.6647031903267
 21
-5.333280086517338
  0
LINE
  8
PIC11
  6
CONTINUOUS
 62
     7
 10
39.91626814752817
 20
-5.333280086517334
 11
39.91626814752817
 21
5.333280086517334
  0
LINE
  8
PIC11
  6
CONTINUOUS
 62
     7
 10
40.08293315023184
 20
-5.333280086517334
 11
40.08293315023184
 21
5.333280086517334
  0
LINE
  8
PIC11
  6
CONTINUOUS
 62
     7
 10
39.91626814752817
 20
5.333280086517334
 11
39.99960064888001
 21
5.249947585165505
  0
LINE
  8
PIC11
  6
CONTINUOUS
 62
     7
 10
39.99960064888001
 20
5.249947585165505
 11
40.08293315023184
 21
5.333280086517338
  0
LINE
  8
PIC11
  6
CONTINUOUS
 62
     7
 10
39.99960064888001
 20
-5.249947585165505
 11
39.99960064888001
 21
5.249947585165501
  0
LINE
  8
PIC11
  6
CONTINUOUS
 62
     7
 10
39.91626814752817
 20
-5.333280086517334
 11
39.99960064888001
 21
-5.249947585165503
  0
LINE
  8
PIC11
  6
CONTINUOUS
 62
     7
 10
39.99960064888001
 20
-5.249947585165505
 11
40.08293315023184
 21
-5.333280086517338
  0
LINE
  8
PIC11
  6
CONTINUOUS
 62
     7
 10
40.08293315023184
 20
5.333280086517338
 11
156.5817700400949
 21
5.333280086517338
  0
LINE
  8
PIC11
  6
CONTINUOUS
 62
     7
 10
40.08293315023184
 20
-5.333280086517338
 11
156.5817700400949
 21
-5.333280086517338
  0
LINE
  8
PIC11
  6
CONTINUOUS
 62
     7
 10
0.0
 20
-5.333280086517338
 11
0.0
 21
5.333280086517338
  0
ENDBLK
  8
PIC11
  0
BLOCK
  8
PIC11
  2
SUB10
 70
    64
 10
0.0
 20
0.0
  0
LINE
  8
PIC11
  6
CONTINUOUS
 62
     7
 10
9.833235159516335
 20
0.0
 11
-9.833235159516335
 21
0.0
  0
LINE
  8
PIC11
  6
CONTINUOUS
 62
     7
 10
-9.999900162220001
 20
0.1666650027036667
 11
-9.999900162220001
 21
2.799972045421602
  0
LINE
  8
PIC11
  6
CONTINUOUS
 62
     7
 10
9.799902158975593
 20
2.999970048666
 11
-9.799902158975593
 21
2.999970048666
  0
ARC
  8
PIC11
  6
CONTINUOUS
 62
     7
 10
-9.799902158975593
 20
2.799972045421602
 40
0.1999980032443999
 50
90.0
 51
180.0
  0
ARC
  8
PIC11
  6
CONTINUOUS
 62
     7
 10
9.799902158975593
 20
2.799972045421602
 40
0.1999980032443999
 50
0.0
 51
90.0
  0
LINE
  8
PIC11
  6
CONTINUOUS
 62
     7
 10
9.999900162220001
 20
0.1666650027036667
 11
9.999900162220001
 21
2.799972045421602
  0
ARC
  8
PIC11
  6
CONTINUOUS
 62
     7
 10
-9.833235159516335
 20
0.1666650027036667
 40
0.1666650027036667
 50
180.0
 51
270.0
  0
ARC
  8
PIC11
  6
CONTINUOUS
 62
     7
 10
9.833235159516335
 20
0.1666650027036667
 40
0.1666650027036667
 50
270.0
 51
0.0
  0
ENDBLK
  8
PIC11
  0
BLOCK
  8
PIC11
  2
SUB11
 70
    64
 10
0.0
 20
0.0
  0
LINE
  8
PIC11
  6
CONTINUOUS
 62
     7
 10
0.0
 20
5.333280086517334
 11
0.0
 21
-5.333280086517334
  0
LINE
  8
PIC11
  6
CONTINUOUS
 62
     7
 10
1.666650027036667
 20
4.833285078406334
 11
1.666650027036667
 21
-4.833285078406334
  0
LINE
  8
PIC11
  6
CONTINUOUS
 62
     7
 10
0.0
 20
5.333280086517334
 11
1.166655018925667
 21
5.333280086517334
  0
LINE
  8
PIC11
  6
CONTINUOUS
 62
     7
 10
0.0
 20
-5.333280086517334
 11
1.166655018925667
 21
-5.333280086517334
  0
ARC
  8
PIC11
  6
CONTINUOUS
 62
     7
 10
1.166655018925667
 20
-4.833285078406334
 40
0.4999950081110001
 50
270.0
 51
0.0
  0
ARC
  8
PIC11
  6
CONTINUOUS
 62
     7
 10
1.166655018925667
 20
4.833285078406334
 40
0.4999950081110001
 50
0.0
 51
90.0
  0
ENDBLK
  8
PIC11
  0
BLOCK
  8
PIC11
  2
SUB12
 70
    64
 10
0.0
 20
0.0
  0
LINE
  8
PIC11
  6
CONTINUOUS
 62
     7
 10
-1.499985024333
 20
-3.872944679201489
 11
1.499985024333
 21
-3.872944679201489
  0
LINE
  8
PIC11
  6
CONTINUOUS
 62
     7
 10
1.499985024333
 20
-3.872944679201489
 11
1.499985024333
 21
-18.66648030281067
  0
LINE
  8
PIC11
  6
CONTINUOUS
 62
     7
 10
-1.499985024333
 20
-3.872944679201489
 11
-1.499985024333
 21
-18.66648030281067
  0
ENDBLK
  8
PIC11
  0
BLOCK
  8
PIC13
  2
SUB13
 70
    64
 10
0.0
 20
0.0
  0
LINE
  8
PIC13
  6
CONTINUOUS
 62
     7
 10
-0.08546216068223708
 20
-1.118123682711898
 11
5.279592025878793
 21
-12.62351951470081
  0
LINE
  8
PIC13
  6
CONTINUOUS
 62
     7
 10
1.128241432708293
 20
-1.118123682711898
 11
6.276520638405787
 21
-12.15864406804563
  0
LINE
  8
PIC13
  6
CONTINUOUS
 62
     7
 10
5.279592025878793
 20
-12.62351951470081
 11
6.339210636206933
 21
-13.59448107991357
  0
LINE
  8
PIC13
  6
CONTINUOUS
 62
     7
 10
6.276520638405787
 20
-12.15864406804563
 11
6.339210636206933
 21
-13.59448107991357
  0
LINE
  8
PIC13
  6
CONTINUOUS
 62
     7
 10
0.09746504091597708
 20
-1.118123682711898
 11
-0.1447985583695199
 21
-1.46411195913765
  0
LINE
  8
PIC13
  6
CONTINUOUS
 62
     7
 10
0.7078462413254638
 20
-1.118123682711898
 11
0.09919777278140064
 21
-1.987363779869741
  0
LINE
  8
PIC13
  6
CONTINUOUS
 62
     7
 10
1.31822744173495
 20
-1.118123682711898
 11
0.3431941039323224
 21
-2.510615600601833
  0
LINE
  8
PIC13
  6
CONTINUOUS
 62
     7
 10
1.580644046348218
 20
-1.615068626615094
 11
0.5871904350832429
 21
-3.033867421333925
  0
LINE
  8
PIC13
  6
CONTINUOUS
 62
     7
 10
1.824640377499139
 20
-2.138320447347185
 11
0.8311867662341634
 21
-3.557119242066017
  0
LINE
  8
PIC13
  6
CONTINUOUS
 62
     7
 10
2.06863670865006
 20
-2.661572268079277
 11
1.075183097385084
 21
-4.080371062798108
  0
LINE
  8
PIC13
  6
CONTINUOUS
 62
     7
 10
2.312633039800981
 20
-3.184824088811368
 11
1.319179428536006
 21
-4.603622883530199
  0
LINE
  8
PIC13
  6
CONTINUOUS
 62
     7
 10
2.556629370951901
 20
-3.70807590954346
 11
1.563175759686926
 21
-5.126874704262291
  0
LINE
  8
PIC13
  6
CONTINUOUS
 62
     7
 10
2.800625702102822
 20
-4.231327730275551
 11
1.807172090837847
 21
-5.650126524994382
  0
LINE
  8
PIC13
  6
CONTINUOUS
 62
     7
 10
3.044622033253743
 20
-4.754579551007643
 11
2.051168421988767
 21
-6.173378345726475
  0
LINE
  8
PIC13
  6
CONTINUOUS
 62
     7
 10
3.288618364404664
 20
-5.277831371739736
 11
2.295164753139688
 21
-6.696630166458566
  0
LINE
  8
PIC13
  6
CONTINUOUS
 62
     7
 10
3.532614695555584
 20
-5.801083192471825
 11
2.539161084290608
 21
-7.219881987190655
  0
LINE
  8
PIC13
  6
CONTINUOUS
 62
     7
 10
3.776611026706505
 20
-6.324335013203916
 11
2.783157415441529
 21
-7.743133807922746
  0
LINE
  8
PIC13
  6
CONTINUOUS
 62
     7
 10
4.020607357857426
 20
-6.847586833936009
 11
3.02715374659245
 21
-8.26638562865484
  0
LINE
  8
PIC13
  6
CONTINUOUS
 62
     7
 10
4.264603689008347
 20
-7.3708386546681
 11
3.271150077743371
 21
-8.789637449386932
  0
LINE
  8
PIC13
  6
CONTINUOUS
 62
     7
 10
4.508600020159268
 20
-7.894090475400192
 11
3.515146408894291
 21
-9.312889270119023
  0
LINE
  8
PIC13
  6
CONTINUOUS
 62
     7
 10
4.752596351310189
 20
-8.417342296132285
 11
3.759142740045212
 21
-9.836141090851115
  0
LINE
  8
PIC13
  6
CONTINUOUS
 62
     7
 10
4.996592682461109
 20
-8.940594116864375
 11
4.003139071196133
 21
-10.35939291158321
  0
LINE
  8
PIC13
  6
CONTINUOUS
 62
     7
 10
5.240589013612029
 20
-9.463845937596467
 11
4.247135402347054
 21
-10.8826447323153
  0
LINE
  8
PIC13
  6
CONTINUOUS
 62
     7
 10
5.484585344762951
 20
-9.987097758328559
 11
4.491131733497975
 21
-11.40589655304739
  0
LINE
  8
PIC13
  6
CONTINUOUS
 62
     7
 10
5.728581675913872
 20
-10.51034957906065
 11
4.735128064648897
 21
-11.92914837377948
  0
LINE
  8
PIC13
  6
CONTINUOUS
 62
     7
 10
5.972578007064793
 20
-11.03360139979274
 11
4.979124395799817
 21
-12.45240019451157
  0
LINE
  8
PIC13
  6
CONTINUOUS
 62
     7
 10
6.216574338215714
 20
-11.55685322052483
 11
5.279684794815894
 21
-12.89487015446882
  0
LINE
  8
PIC13
  6
CONTINUOUS
 62
     7
 10
6.460570669366633
 20
-12.08010504125692
 11
5.65150071959422
 21
-13.23557667733934
  0
LINE
  8
PIC13
  6
CONTINUOUS
 62
     7
 10
6.508360098480104
 20
-12.88356935804285
 11
6.023316644372548
 21
-13.57628320020986
  0
ENDBLK
  8
PIC13
  0
BLOCK
  8
PIC13
  2
SUB14
 70
    64
 10
0.0
 20
0.0
  0
LINE
  8
PIC13
  6
CONTINUOUS
 62
     7
 10
-1.128241432708292
 20
-1.118123682711897
 11
-6.276520638405787
 21
-12.15864406804563
  0
LINE
  8
PIC13
  6
CONTINUOUS
 62
     7
 10
0.08546216068223708
 20
-1.118123682711897
 11
-5.279592025878792
 21
-12.62351951470081
  0
LINE
  8
PIC13
  6
CONTINUOUS
 62
     7
 10
-6.276520638405787
 20
-12.15864406804563
 11
-6.339210636206931
 21
-13.59448107991357
  0
LINE
  8
PIC13
  6
CONTINUOUS
 62
     7
 10
-5.279592025878792
 20
-12.62351951470081
 11
-6.339210636206931
 21
-13.59448107991357
  0
LINE
  8
PIC13
  6
CONTINUOUS
 62
     7
 10
0.2667967239449807
 20
-1.202486048771604
 11
-1.458645880772758
 21
-1.353442716249049
  0
LINE
  8
PIC13
  6
CONTINUOUS
 62
     7
 10
0.02280039279405902
 20
-1.725737869503695
 11
-1.702642211923679
 21
-1.87669453698114
  0
LINE
  8
PIC13
  6
CONTINUOUS
 62
     7
 10
-0.2211959383568615
 20
-2.248989690235787
 11
-1.946638543074599
 21
-2.399946357713232
  0
LINE
  8
PIC13
  6
CONTINUOUS
 62
     7
 10
-0.465192269507782
 20
-2.772241510967879
 11
-2.19063487422552
 21
-2.923198178445324
  0
LINE
  8
PIC13
  6
CONTINUOUS
 62
     7
 10
-0.7091886006587025
 20
-3.29549333169997
 11
-2.434631205376441
 21
-3.446449999177415
  0
LINE
  8
PIC13
  6
CONTINUOUS
 62
     7
 10
-0.9531849318096231
 20
-3.818745152432062
 11
-2.678627536527362
 21
-3.969701819909507
  0
LINE
  8
PIC13
  6
CONTINUOUS
 62
     7
 10
-1.197181262960544
 20
-4.341996973164154
 11
-2.922623867678282
 21
-4.492953640641598
  0
LINE
  8
PIC13
  6
CONTINUOUS
 62
     7
 10
-1.441177594111465
 20
-4.865248793896246
 11
-3.166620198829203
 21
-5.016205461373691
  0
LINE
  8
PIC13
  6
CONTINUOUS
 62
     7
 10
-1.685173925262386
 20
-5.388500614628337
 11
-3.410616529980123
 21
-5.539457282105781
  0
LINE
  8
PIC13
  6
CONTINUOUS
 62
     7
 10
-1.929170256413306
 20
-5.911752435360429
 11
-3.654612861131044
 21
-6.062709102837874
  0
LINE
  8
PIC13
  6
CONTINUOUS
 62
     7
 10
-2.173166587564227
 20
-6.43500425609252
 11
-3.898609192281965
 21
-6.585960923569964
  0
LINE
  8
PIC13
  6
CONTINUOUS
 62
     7
 10
-2.417162918715146
 20
-6.95825607682461
 11
-4.142605523432885
 21
-7.109212744302054
  0
LINE
  8
PIC13
  6
CONTINUOUS
 62
     7
 10
-2.661159249866068
 20
-7.481507897556703
 11
-4.386601854583805
 21
-7.632464565034147
  0
LINE
  8
PIC13
  6
CONTINUOUS
 62
     7
 10
-2.905155581016989
 20
-8.004759718288796
 11
-4.630598185734727
 21
-8.155716385766239
  0
LINE
  8
PIC13
  6
CONTINUOUS
 62
     7
 10
-3.149151912167909
 20
-8.528011539020886
 11
-4.874594516885648
 21
-8.678968206498331
  0
LINE
  8
PIC13
  6
CONTINUOUS
 62
     7
 10
-3.393148243318831
 20
-9.051263359752978
 11
-5.118590848036568
 21
-9.202220027230423
  0
LINE
  8
PIC13
  6
CONTINUOUS
 62
     7
 10
-3.637144574469751
 20
-9.57451518048507
 11
-5.362587179187489
 21
-9.725471847962513
  0
LINE
  8
PIC13
  6
CONTINUOUS
 62
     7
 10
-3.881140905620672
 20
-10.09776700121716
 11
-5.606583510338409
 21
-10.24872366869461
  0
LINE
  8
PIC13
  6
CONTINUOUS
 62
     7
 10
-4.125137236771593
 20
-10.62101882194926
 11
-5.850579841489331
 21
-10.7719754894267
  0
LINE
  8
PIC13
  6
CONTINUOUS
 62
     7
 10
-4.369133567922512
 20
-11.14427064268135
 11
-6.094576172640251
 21
-11.29522731015879
  0
LINE
  8
PIC13
  6
CONTINUOUS
 62
     7
 10
-4.613129899073434
 20
-11.66752246341344
 11
-6.338572503791172
 21
-11.81847913089088
  0
LINE
  8
PIC13
  6
CONTINUOUS
 62
     7
 10
-4.857126230224355
 20
-12.19077428414553
 11
-6.48432765741352
 21
-12.33313596229779
  0
LINE
  8
PIC13
  6
CONTINUOUS
 62
     7
 10
-5.101122561375274
 20
-12.71402610487762
 11
-6.50632532646122
 21
-12.83696541677792
  0
LINE
  8
PIC13
  6
CONTINUOUS
 62
     7
 10
-5.685893483585385
 20
-13.26709183914507
 11
-6.528322995508924
 21
-13.34079487125806
  0
ENDBLK
  8
PIC13
  0
BLOCK
  8
PIC13
  2
SUB15
 70
    64
 10
0.0
 20
0.0
  0
INSERT
  8
PIC13
  6
CONTINUOUS
 62
     7
  2
SUB16
 10
0.0
 20
21.66645035147667
 41
1.0
 42
1.0
 50
0.0
  0
INSERT
  8
PIC13
  6
CONTINUOUS
 62
     7
  2
SUB17
 10
0.0
 20
21.66645035147667
 41
1.0
 42
1.0
 50
0.0
  0
INSERT
  8
PIC13
  6
CONTINUOUS
 62
     7
  2
SUB18
 10
0.0
 20
0.0
 41
1.0
 42
1.0
 50
0.0
  0
ENDBLK
  8
PIC13
  0
BLOCK
  8
PIC13
  2
SUB16
 70
    64
 10
0.0
 20
0.0
  0
LINE
  8
PIC13
  6
CONTINUOUS
 62
     7
 10
3.666630059480667
 20
-3.872944679201489
 11
3.666630059480667
 21
-18.66648030281067
  0
LINE
  8
PIC13
  6
CONTINUOUS
 62
     7
 10
-3.666630059480667
 20
-3.872944679201489
 11
-3.666630059480667
 21
-18.66648030281067
  0
ARC
  8
PIC13
  6
CONTINUOUS
 62
     7
 10
0.0
 20
0.0
 40
5.333280086517334
 50
226.5674634422102
 51
313.4325365577898
  0
ENDBLK
  8
PIC13
  0
BLOCK
  8
PIC13
  2
SUB17
 70
    64
 10
0.0
 20
0.0
  0
CIRCLE
  8
PIC13
  6
CONTINUOUS
 62
     7
 10
0.0
 20
0.0
 40
5.333280086517334
  0
ENDBLK
  8
PIC13
  0
BLOCK
  8
PIC13
  2
SUB18
 70
    64
 10
0.0
 20
0.0
  0
LINE
  8
PIC13
  6
CONTINUOUS
 62
     7
 10
-9.833235159516333
 20
0.0
 11
9.833235159516333
 21
0.0
  0
LINE
  8
PIC13
  6
CONTINUOUS
 62
     7
 10
9.999900162220001
 20
0.1666650027036667
 11
9.999900162220001
 21
2.799972045421602
  0
LINE
  8
PIC13
  6
CONTINUOUS
 62
     7
 10
-9.7999021589756
 20
2.999970048666
 11
9.7999021589756
 21
2.999970048666
  0
ARC
  8
PIC13
  6
CONTINUOUS
 62
     7
 10
9.7999021589756
 20
2.799972045421602
 40
0.1999980032443999
 50
0.0
 51
90.0
  0
ARC
  8
PIC13
  6
CONTINUOUS
 62
     7
 10
-9.7999021589756
 20
2.799972045421602
 40
0.1999980032443999
 50
90.0
 51
180.0
  0
LINE
  8
PIC13
  6
CONTINUOUS
 62
     7
 10
-9.999900162220001
 20
0.1666650027036667
 11
-9.999900162220001
 21
2.799972045421602
  0
ARC
  8
PIC13
  6
CONTINUOUS
 62
     7
 10
9.833235159516335
 20
0.1666650027036667
 40
0.1666650027036667
 50
270.0
 51
0.0
  0
ARC
  8
PIC13
  6
CONTINUOUS
 62
     7
 10
-9.833235159516335
 20
0.1666650027036667
 40
0.1666650027036667
 50
180.0
 51
270.0
  0
ENDBLK
  8
PIC13
  0
BLOCK
  8
PIC15
  2
SUB19
 70
    64
 10
0.0
 20
0.0
  0
INSERT
  8
PIC15
  6
CONTINUOUS
 62
     7
  2
SUB20
 10
0.0
 20
0.0
 41
1.0
 42
1.0
 50
0.0
  0
INSERT
  8
PIC15
  6
CONTINUOUS
 62
     7
  2
SUB21
 10
-23.33310037851335
 20
0.0
 41
1.0
 42
1.0
 50
0.0
  0
INSERT
  8
PIC15
  6
CONTINUOUS
 62
     7
  2
SUB22
 10
-23.33310037851335
 20
0.0
 41
1.0
 42
1.0
 50
0.0
  0
INSERT
  8
PIC15
  6
CONTINUOUS
 62
     7
  2
SUB23
 10
149.9985024333
 20
0.0
 41
1.0
 42
1.0
 50
0.0
  0
INSERT
  8
PIC15
  6
CONTINUOUS
 62
     7
  2
SUB24
 10
173.3316028118134
 20
0.0
 41
1.0
 42
1.0
 50
0.0
  0
ENDBLK
  8
PIC15
  0
BLOCK
  8
PIC15
  2
SUB20
 70
    64
 10
0.0
 20
0.0
  0
ARC
  8
PIC15
  6
CONTINUOUS
 62
     7
 10
0.0
 20
0.0
 40
9.999900162219999
 50
32.23095263550212
 51
147.7690473644979
  0
ARC
  8
PIC15
  6
CONTINUOUS
 62
     7
 10
0.0
 20
0.0
 40
9.999900162219999
 50
212.2309526355021
 51
327.7690473644979
  0
ENDBLK
  8
PIC15
  0
BLOCK
  8
PIC15
  2
SUB21
 70
    64
 10
0.0
 20
0.0
  0
LINE
  8
PIC15
  6
CONTINUOUS
 62
     7
 10
0.0
 20
5.333280086517334
 11
0.0
 21
-5.333280086517334
  0
LINE
  8
PIC15
  6
CONTINUOUS
 62
     7
 10
-1.666650027036667
 20
4.833285078406334
 11
-1.666650027036667
 21
-4.833285078406334
  0
LINE
  8
PIC15
  6
CONTINUOUS
 62
     7
 10
0.0
 20
5.333280086517334
 11
-1.166655018925667
 21
5.333280086517334
  0
LINE
  8
PIC15
  6
CONTINUOUS
 62
     7
 10
0.0
 20
-5.333280086517334
 11
-1.166655018925667
 21
-5.333280086517334
  0
ARC
  8
PIC15
  6
CONTINUOUS
 62
     7
 10
-1.166655018925667
 20
-4.833285078406334
 40
0.4999950081110001
 50
180.0
 51
270.0
  0
ARC
  8
PIC15
  6
CONTINUOUS
 62
     7
 10
-1.166655018925667
 20
4.833285078406334
 40
0.4999950081110001
 50
90.0
 51
180.0
  0
ENDBLK
  8
PIC15
  0
BLOCK
  8
PIC15
  2
SUB22
 70
    64
 10
0.0
 20
0.0
  0
LINE
  8
PIC15
  6
CONTINUOUS
 62
     7
 10
0.0
 20
5.333280086517334
 11
39.91626814752817
 21
5.333280086517334
  0
LINE
  8
PIC15
  6
CONTINUOUS
 62
     7
 10
0.0
 20
-5.333280086517334
 11
39.91626814752817
 21
-5.333280086517334
  0
LINE
  8
PIC15
  6
CONTINUOUS
 62
     7
 10
196.6647031903267
 20
-5.333280086517334
 11
196.6647031903267
 21
5.333280086517337
  0
LINE
  8
PIC15
  6
CONTINUOUS
 62
     7
 10
156.6651025414467
 20
-5.249947585165504
 11
156.6651025414467
 21
5.249947585165503
  0
LINE
  8
PIC15
  6
CONTINUOUS
 62
     7
 10
156.5817700400949
 20
-5.333280086517334
 11
156.5817700400949
 21
5.333280086517337
  0
LINE
  8
PIC15
  6
CONTINUOUS
 62
     7
 10
156.7484350427985
 20
-5.333280086517334
 11
156.7484350427985
 21
5.333280086517337
  0
LINE
  8
PIC15
  6
CONTINUOUS
 62
     7
 10
156.6651025414467
 20
5.249947585165504
 11
156.7484350427985
 21
5.333280086517338
  0
LINE
  8
PIC15
  6
CONTINUOUS
 62
     7
 10
156.5817700400949
 20
5.333280086517335
 11
156.6651025414467
 21
5.249947585165503
  0
LINE
  8
PIC15
  6
CONTINUOUS
 62
     7
 10
156.7484350427985
 20
5.333280086517338
 11
196.6647031903267
 21
5.333280086517338
  0
LINE
  8
PIC15
  6
CONTINUOUS
 62
     7
 10
156.5817700400949
 20
-5.333280086517335
 11
156.6651025414467
 21
-5.249947585165503
  0
LINE
  8
PIC15
  6
CONTINUOUS
 62
     7
 10
156.6651025414467
 20
-5.249947585165504
 11
156.7484350427985
 21
-5.333280086517338
  0
LINE
  8
PIC15
  6
CONTINUOUS
 62
     7
 10
156.7484350427985
 20
-5.333280086517338
 11
196.6647031903267
 21
-5.333280086517338
  0
LINE
  8
PIC15
  6
CONTINUOUS
 62
     7
 10
39.91626814752817
 20
-5.333280086517334
 11
39.91626814752817
 21
5.333280086517337
  0
LINE
  8
PIC15
  6
CONTINUOUS
 62
     7
 10
40.08293315023184
 20
-5.333280086517334
 11
40.08293315023184
 21
5.333280086517337
  0
LINE
  8
PIC15
  6
CONTINUOUS
 62
     7
 10
39.91626814752817
 20
5.333280086517335
 11
39.99960064888001
 21
5.249947585165503
  0
LINE
  8
PIC15
  6
CONTINUOUS
 62
     7
 10
39.99960064888001
 20
5.249947585165504
 11
40.08293315023184
 21
5.333280086517338
  0
LINE
  8
PIC15
  6
CONTINUOUS
 62
     7
 10
39.99960064888001
 20
-5.249947585165504
 11
39.99960064888001
 21
5.249947585165503
  0
LINE
  8
PIC15
  6
CONTINUOUS
 62
     7
 10
39.91626814752817
 20
-5.333280086517335
 11
39.99960064888001
 21
-5.249947585165503
  0
LINE
  8
PIC15
  6
CONTINUOUS
 62
     7
 10
39.99960064888001
 20
-5.249947585165504
 11
40.08293315023184
 21
-5.333280086517338
  0
LINE
  8
PIC15
  6
CONTINUOUS
 62
     7
 10
40.08293315023184
 20
5.333280086517338
 11
156.5817700400949
 21
5.333280086517338
  0
LINE
  8
PIC15
  6
CONTINUOUS
 62
     7
 10
40.08293315023184
 20
-5.333280086517338
 11
156.5817700400949
 21
-5.333280086517338
  0
LINE
  8
PIC15
  6
CONTINUOUS
 62
     7
 10
0.0
 20
-5.333280086517338
 11
0.0
 21
5.333280086517338
  0
ENDBLK
  8
PIC15
  0
BLOCK
  8
PIC15
  2
SUB23
 70
    64
 10
0.0
 20
0.0
  0
ARC
  8
PIC15
  6
CONTINUOUS
 62
     7
 10
0.0
 20
0.0
 40
9.999900162220007
 50
32.23095263550211
 51
147.7690473644979
  0
ARC
  8
PIC15
  6
CONTINUOUS
 62
     7
 10
0.0
 20
0.0
 40
9.999900162220014
 50
212.2309526355022
 51
327.7690473644979
  0
ENDBLK
  8
PIC15
  0
BLOCK
  8
PIC15
  2
SUB24
 70
    64
 10
0.0
 20
0.0
  0
LINE
  8
PIC15
  6
CONTINUOUS
 62
     7
 10
0.0
 20
5.333280086517334
 11
0.0
 21
-5.333280086517334
  0
LINE
  8
PIC15
  6
CONTINUOUS
 62
     7
 10
1.666650027036667
 20
4.833285078406334
 11
1.666650027036667
 21
-4.833285078406334
  0
LINE
  8
PIC15
  6
CONTINUOUS
 62
     7
 10
0.0
 20
5.333280086517334
 11
1.166655018925667
 21
5.333280086517334
  0
LINE
  8
PIC15
  6
CONTINUOUS
 62
     7
 10
0.0
 20
-5.333280086517334
 11
1.166655018925667
 21
-5.333280086517334
  0
ARC
  8
PIC15
  6
CONTINUOUS
 62
     7
 10
1.166655018925667
 20
-4.833285078406334
 40
0.4999950081110001
 50
270.0
 51
0.0
  0
ARC
  8
PIC15
  6
CONTINUOUS
 62
     7
 10
1.166655018925667
 20
4.833285078406334
 40
0.4999950081110001
 50
0.0
 51
90.0
  0
ENDBLK
  8
PIC15
  0
BLOCK
  8
PIC44
  2
SUB25
 70
    64
 10
0.0
 20
0.0
  0
INSERT
  8
PIC44
  6
CONTINUOUS
 62
     7
  2
SUB26
 10
0.0
 20
0.0
 41
1.0
 42
1.0
 50
0.0
  0
ENDBLK
  8
PIC44
  0
BLOCK
  8
PIC44
  2
SUB26
 70
    64
 10
0.0
 20
0.0
  0
CIRCLE
  8
PIC44
  6
CONTINUOUS
 62
     7
 10
10.0
 20
0.0
 40
2.0
  0
CIRCLE
  8
PIC44
  6
CONTINUOUS
 62
     7
 10
-10.0
 20
0.0
 40
2.0
  0
ARC
  8
PIC44
  6
CONTINUOUS
 62
     7
 10
0.0
 20
0.0
 40
14.75
 50
260.2417434046182
 51
279.7582565953819
  0
ARC
  8
PIC44
  6
CONTINUOUS
 62
     7
 10
0.0
 20
0.0
 40
14.75
 50
80.24174340461813
 51
99.75825659538187
  0
LINE
  8
PIC44
  6
CONTINUOUS
 62
     7
 10
-2.5
 20
14.18132574902643
 11
-2.5
 21
14.53659176010663
  0
LINE
  8
PIC44
  6
CONTINUOUS
 62
     7
 10
2.5
 20
14.18132574902643
 11
2.5
 21
14.53659176010663
  0
LINE
  8
PIC44
  6
CONTINUOUS
 62
     7
 10
-2.5
 20
-14.18132574902643
 11
-2.5
 21
-14.53659176010663
  0
LINE
  8
PIC44
  6
CONTINUOUS
 62
     7
 10
2.5
 20
-14.53659176010663
 11
2.5
 21
-14.18132574902643
  0
LINE
  8
PIC44
  6
CONTINUOUS
 62
     7
 10
1.012499999999999
 20
-5.512499999999999
 11
-1.012499999999999
 21
-5.5125
  0
LINE
  8
PIC44
  6
CONTINUOUS
 62
     7
 10
1.012500000000002
 20
5.512500000000001
 11
-1.012499999999999
 21
5.5125
  0
LINE
  8
PIC44
  6
CONTINUOUS
 62
     7
 10
-2.2625
 20
-4.2625
 11
-2.262499999999999
 21
4.2625
  0
LINE
  8
PIC44
  6
CONTINUOUS
 62
     7
 10
2.262500000000002
 20
-4.262500000000002
 11
2.262500000000002
 21
4.2625
  0
ARC
  8
PIC44
  6
CONTINUOUS
 62
     7
 10
-10.0
 20
0.0
 40
5.000000000000004
 50
305.685334712652
 51
54.31466528734792
  0
LINE
  8
PIC44
  6
CONTINUOUS
 62
     7
 10
-7.5
 20
-11.71793497165776
 11
-7.5
 21
-4.873397172404487
  0
ARC
  8
PIC44
  6
CONTINUOUS
 62
     7
 10
-4.371067818243183
 20
9.214088039689903
 40
1.079209326974592
 50
23.30472248651644
 51
41.13701605079226
  0
ARC
  8
PIC44
  6
CONTINUOUS
 62
     7
 10
-4.432521810615241
 20
9.158840290231574
 40
1.161838689230121
 50
41.19525509557242
 51
58.2353027808122
  0
ARC
  8
PIC44
  6
CONTINUOUS
 62
     7
 10
-4.482761890396513
 20
9.078838478718645
 40
1.256305737061095
 50
58.20796327480564
 51
74.37963106147457
  0
ARC
  8
PIC44
  6
CONTINUOUS
 62
     7
 10
-4.499460437897776
 20
9.022752908631002
 40
1.314816546523207
 50
74.33692149896395
 51
90.02351250612898
  0
ARC
  8
PIC44
  6
CONTINUOUS
 62
     7
 10
-4.500539562102232
 20
9.022752908631057
 40
1.314816546523152
 50
89.97648749386804
 51
105.6630785010338
  0
ARC
  8
PIC44
  6
CONTINUOUS
 62
     7
 10
-4.517238109603425
 20
9.078838478718495
 40
1.256305737061256
 50
105.6203689385236
 51
121.7920367251905
  0
ARC
  8
PIC44
  6
CONTINUOUS
 62
     7
 10
-4.567478189384728
 20
9.158840290231543
 40
1.161838689230164
 50
121.7646972191854
 51
138.8047449044246
  0
ARC
  8
PIC44
  6
CONTINUOUS
 62
     7
 10
-4.628932181756896
 20
9.214088039689953
 40
1.079209326974499
 50
138.862983949204
 51
156.6952775134816
  0
ARC
  8
PIC44
  6
CONTINUOUS
 62
     7
 10
-4.705205196771198
 20
10.03276984610564
 40
0.9947950339898689
 50
180.0390258260043
 51
199.7865451867622
  0
ARC
  8
PIC44
  6
CONTINUOUS
 62
     7
 10
-4.650431844802276
 20
10.05355937220191
 40
1.05337268457208
 50
199.8420480302932
 51
218.8472653321599
  0
ARC
  8
PIC44
  6
CONTINUOUS
 62
     7
 10
-4.574843260399104
 20
10.11467266316255
 40
1.150575758361144
 50
218.8564094714385
 51
236.7710681664707
  0
ARC
  8
PIC44
  6
CONTINUOUS
 62
     7
 10
-4.519455808909986
 20
10.19807543811871
 40
1.25069284250052
 50
236.7423263826876
 51
253.6839268193905
  0
ARC
  8
PIC44
  6
CONTINUOUS
 62
     7
 10
-4.500614099520144
 20
10.25851114522881
 40
1.313988370919102
 50
253.6357732855295
 51
270.0267774911596
  0
ARC
  8
PIC44
  6
CONTINUOUS
 62
     7
 10
-4.499385900479856
 20
10.25851114522881
 40
1.313988370919102
 50
269.9732225088404
 51
286.3642267144705
  0
ARC
  8
PIC44
  6
CONTINUOUS
 62
     7
 10
-4.480544191089952
 20
10.19807543811858
 40
1.250692842500375
 50
286.3160731806085
 51
303.2576736173133
  0
ARC
  8
PIC44
  6
CONTINUOUS
 62
     7
 10
-4.425156739600896
 20
10.11467266316255
 40
1.150575758361143
 50
303.2289318335293
 51
321.1435905285615
  0
ARC
  8
PIC44
  6
CONTINUOUS
 62
     7
 10
-4.349568155197751
 20
10.05355937220192
 40
1.053372684572112
 50
321.1527346678404
 51
340.1579519697065
  0
ARC
  8
PIC44
  6
CONTINUOUS
 62
     7
 10
-4.294794803228801
 20
10.03276984610564
 40
0.9947950339898682
 50
340.2134548132378
 51
359.9609741739957
  0
ARC
  8
PIC44
  6
CONTINUOUS
 62
     7
 10
-4.294794803228801
 20
10.03141467840447
 40
0.994795033989868
 50
0.03902582600430447
 51
19.7865451867622
  0
ARC
  8
PIC44
  6
CONTINUOUS
 62
     7
 10
-4.349568155197725
 20
10.0106251523082
 40
1.053372684572083
 50
19.8420480302933
 51
38.84726533215989
  0
ARC
  8
PIC44
  6
CONTINUOUS
 62
     7
 10
-4.425156739600952
 20
9.949511861347496
 40
1.150575758361227
 50
38.85640947143919
 51
56.77106816647003
  0
ARC
  8
PIC44
  6
CONTINUOUS
 62
     7
 10
-4.480544191090012
 20
9.866109086391401
 40
1.250692842500516
 50
56.74232638268762
 51
73.68392681939058
  0
ARC
  8
PIC44
  6
CONTINUOUS
 62
     7
 10
-4.499385900479856
 20
9.805673379281302
 40
1.313988370919102
 50
73.6357732855295
 51
90.02677749115962
  0
ARC
  8
PIC44
  6
CONTINUOUS
 62
     7
 10
-4.500614099520166
 20
9.805673379281458
 40
1.313988370918946
 50
89.97322250883943
 51
106.3642267144715
  0
ARC
  8
PIC44
  6
CONTINUOUS
 62
     7
 10
-4.519455808910048
 20
9.86610908639153
 40
1.250692842500375
 50
106.3160731806085
 51
123.2576736173134
  0
ARC
  8
PIC44
  6
CONTINUOUS
 62
     7
 10
-4.574843260399104
 20
9.949511861347556
 40
1.150575758361145
 50
123.2289318335293
 51
141.1435905285614
  0
ARC
  8
PIC44
  6
CONTINUOUS
 62
     7
 10
-4.650431844802275
 20
10.0106251523082
 40
1.053372684572081
 50
141.1527346678402
 51
160.1579519697068
  0
ARC
  8
PIC44
  6
CONTINUOUS
 62
     7
 10
-4.705205196771198
 20
10.03141467840447
 40
0.9947950339898691
 50
160.2134548132378
 51
179.9609741739957
  0
ARC
  8
PIC44
  6
CONTINUOUS
 62
     7
 10
-4.385950003007823
 20
10.09448764522654
 40
2.401768482668606
 50
310.5344463969954
 51
329.1019254258104
  0
ARC
  8
PIC44
  6
CONTINUOUS
 62
     7
 10
-4.300198481110847
 20
10.04232488179423
 40
2.301400518938697
 50
329.1199866539905
 51
348.2278301718579
  0
ARC
  8
PIC44
  6
CONTINUOUS
 62
     7
 10
-4.257803789459999
 20
10.0320461009634
 40
2.25780089128292
 50
348.2636925328688
 51
7.617856665416769
  0
ARC
  8
PIC44
  6
CONTINUOUS
 62
     7
 10
-4.286039827055632
 20
10.02673752121626
 40
2.28649196312065
 50
7.655910540666653
 51
26.84709726602206
  0
ARC
  8
PIC44
  6
CONTINUOUS
 62
     7
 10
-4.366211485238269
 20
9.98515458948923
 40
2.376801792361142
 50
26.86866032285658
 51
45.5684345389916
  0
ARC
  8
PIC44
  6
CONTINUOUS
 62
     7
 10
-4.448515772392912
 20
9.901344275862142
 40
2.494267339395123
 50
45.56612718746645
 51
63.67157477003173
  0
ARC
  8
PIC44
  6
CONTINUOUS
 62
     7
 10
-4.492825974558018
 20
9.814003609292472
 40
2.592200316509862
 50
63.64998494504674
 51
81.29459436735928
  0
ARC
  8
PIC44
  6
CONTINUOUS
 62
     7
 10
-4.499999999999998
 20
9.776675757374532
 40
2.630184350194504
 50
81.26318943477806
 51
98.73681056522219
  0
ARC
  8
PIC44
  6
CONTINUOUS
 62
     7
 10
-4.507174025442007
 20
9.814003609292545
 40
2.592200316509786
 50
98.70540563264058
 51
116.3500150549537
  0
ARC
  8
PIC44
  6
CONTINUOUS
 62
     7
 10
-4.551484227607075
 20
9.901344275862128
 40
2.494267339395141
 50
116.3284252299686
 51
134.4338728125337
  0
ARC
  8
PIC44
  6
CONTINUOUS
 62
     7
 10
-4.633788514761763
 20
9.98515458948925
 40
2.376801792361105
 50
134.4315654610084
 51
153.1313396771436
  0
ARC
  8
PIC44
  6
CONTINUOUS
 62
     7
 10
-4.713960172944372
 20
10.02673752121626
 40
2.286491963120646
 50
153.152902733978
 51
172.3440894593334
  0
ARC
  8
PIC44
  6
CONTINUOUS
 62
     7
 10
-4.742196210540048
 20
10.0320461009634
 40
2.257800891282874
 50
172.3821433345831
 51
191.7363074671314
  0
ARC
  8
PIC44
  6
CONTINUOUS
 62
     7
 10
-4.699801518889115
 20
10.04232488179425
 40
2.301400518938738
 50
191.7721698281422
 51
210.8800133460093
  0
ARC
  8
PIC44
  6
CONTINUOUS
 62
     7
 10
-4.614049996992097
 20
10.0944876452266
 40
2.401768482668706
 50
210.8980745741898
 51
229.4655536030041
  0
ARC
  8
PIC44
  6
CONTINUOUS
 62
     7
 10
-4.266202225859808
 20
10.87659222320287
 40
2.266202345558824
 50
0.01862231117510483
 51
18.91383724922627
  0
ARC
  8
PIC44
  6
CONTINUOUS
 62
     7
 10
-4.328607505911312
 20
10.853993121999
 40
2.332563873361289
 50
18.94209735874202
 51
37.47567637211536
  0
ARC
  8
PIC44
  6
CONTINUOUS
 62
     7
 10
-4.414728340383088
 20
10.78756036923077
 40
2.441329716385029
 50
37.4832751497415
 51
55.45991980355467
  0
ARC
  8
PIC44
  6
CONTINUOUS
 62
     7
 10
-4.47783328644284
 20
10.69689799707349
 40
2.551790482924856
 50
55.4469545573589
 51
72.89890836607691
  0
ARC
  8
PIC44
  6
CONTINUOUS
 62
     7
 10
-4.499300333991657
 20
10.63120180683891
 40
2.620894917601865
 50
72.87268791838442
 51
90.01529550443006
  0
ARC
  8
PIC44
  6
CONTINUOUS
 62
     7
 10
-4.500699666008335
 20
10.63120180683882
 40
2.62089491760195
 50
89.98470449557009
 51
107.1273120816152
  0
ARC
  8
PIC44
  6
CONTINUOUS
 62
     7
 10
-4.522166713557109
 20
10.69689799707339
 40
2.551790482924962
 50
107.1010916339236
 51
124.5530454426408
  0
ARC
  8
PIC44
  6
CONTINUOUS
 62
     7
 10
-4.58527165961696
 20
10.78756036923082
 40
2.44132971638496
 50
124.5400801964451
 51
142.5167248502588
  0
ARC
  8
PIC44
  6
CONTINUOUS
 62
     7
 10
-4.671392494088686
 20
10.853993121999
 40
2.332563873361292
 50
142.5243236278846
 51
161.0579026412579
  0
ARC
  8
PIC44
  6
CONTINUOUS
 62
     7
 10
-4.733797774140145
 20
10.87659222320287
 40
2.266202345558871
 50
161.086162750774
 51
179.9813776888248
  0
LINE
  8
PIC44
  6
CONTINUOUS
 62
     7
 10
-2.0
 20
10.87732878573645
 11
-2.0
 21
10.03209226225506
  0
LINE
  8
PIC44
  6
CONTINUOUS
 62
     7
 10
-7.0
 20
10.87732878573645
 11
-7.0
 21
10.03209226225506
  0
LINE
  8
PIC44
  6
CONTINUOUS
 62
     7
 10
-2.825028442769479
 20
8.269106663863099
 11
-6.174971557230521
 21
8.269106663863099
  0
LINE
  8
PIC44
  6
CONTINUOUS
 62
     7
 10
-2.825028442769479
 20
-8.269106663863099
 11
-6.174971557230521
 21
-8.269106663863099
  0
ARC
  8
PIC44
  6
CONTINUOUS
 62
     7
 10
-4.614049996992117
 20
-10.09448764522659
 40
2.401768482668682
 50
130.5344463969958
 51
149.1019254258101
  0
ARC
  8
PIC44
  6
CONTINUOUS
 62
     7
 10
-4.699801518889119
 20
-10.04232488179425
 40
2.301400518938734
 50
149.1199866539905
 51
168.2278301718576
  0
ARC
  8
PIC44
  6
CONTINUOUS
 62
     7
 10
-4.742196210540051
 20
-10.0320461009634
 40
2.257800891282871
 50
168.2636925328684
 51
187.6178566654168
  0
ARC
  8
PIC44
  6
CONTINUOUS
 62
     7
 10
-4.713960172944319
 20
-10.02673752121625
 40
2.286491963120701
 50
187.6559105406667
 51
206.8470972660216
  0
ARC
  8
PIC44
  6
CONTINUOUS
 62
     7
 10
-4.633788514761731
 20
-9.985154589489227
 40
2.376801792361143
 50
206.8686603228564
 51
225.5684345389913
  0
ARC
  8
PIC44
  6
CONTINUOUS
 62
     7
 10
-4.551484227607068
 20
-9.901344275862108
 40
2.494267339395161
 50
225.5661271874664
 51
243.6715747700313
  0
ARC
  8
PIC44
  6
CONTINUOUS
 62
     7
 10
-4.507174025441998
 20
-9.814003609292536
 40
2.592200316509797
 50
243.6499849450461
 51
261.2945943673591
  0
ARC
  8
PIC44
  6
CONTINUOUS
 62
     7
 10
-4.500000000000003
 20
-9.776675757374527
 40
2.63018435019451
 50
261.2631894347778
 51
278.736810565222
  0
ARC
  8
PIC44
  6
CONTINUOUS
 62
     7
 10
-4.492825974557963
 20
-9.814003609292655
 40
2.592200316509672
 50
278.70540563264
 51
296.350015054954
  0
ARC
  8
PIC44
  6
CONTINUOUS
 62
     7
 10
-4.448515772392858
 20
-9.901344275862215
 40
2.494267339395032
 50
296.3284252299679
 51
314.4338728125339
  0
ARC
  8
PIC44
  6
CONTINUOUS
 62
     7
 10
-4.366211485238228
 20
-9.985154589489257
 40
2.376801792361093
 50
314.4315654610083
 51
333.1313396771437
  0
ARC
  8
PIC44
  6
CONTINUOUS
 62
     7
 10
-4.286039827055633
 20
-10.02673752121626
 40
2.28649196312065
 50
333.1529027339781
 51
352.3440894593335
  0
ARC
  8
PIC44
  6
CONTINUOUS
 62
     7
 10
-4.257803789459963
 20
-10.0320461009634
 40
2.257800891282885
 50
352.3821433345833
 51
11.73630746713169
  0
ARC
  8
PIC44
  6
CONTINUOUS
 62
     7
 10
-4.300198481110892
 20
-10.04232488179425
 40
2.301400518938745
 50
11.77216982814256
 51
30.88001334600968
  0
ARC
  8
PIC44
  6
CONTINUOUS
 62
     7
 10
-4.3859500030078
 20
-10.09448764522652
 40
2.401768482668575
 50
30.89807457418977
 51
49.46555360300466
  0
ARC
  8
PIC44
  6
CONTINUOUS
 62
     7
 10
-4.733797774140145
 20
-10.87659222320287
 40
2.266202345558871
 50
180.0186223111752
 51
198.9138372492261
  0
ARC
  8
PIC44
  6
CONTINUOUS
 62
     7
 10
-4.671392494088686
 20
-10.853993121999
 40
2.332563873361292
 50
198.9420973587421
 51
217.4756763721154
  0
ARC
  8
PIC44
  6
CONTINUOUS
 62
     7
 10
-4.58527165961698
 20
-10.78756036923084
 40
2.44132971638493
 50
217.4832751497411
 51
235.459919803555
  0
ARC
  8
PIC44
  6
CONTINUOUS
 62
     7
 10
-4.522166713557145
 20
-10.69689799707346
 40
2.551790482924891
 50
235.446954557359
 51
252.8989083660768
  0
ARC
  8
PIC44
  6
CONTINUOUS
 62
     7
 10
-4.500699666008342
 20
-10.6312018068389
 40
2.62089491760187
 50
252.8726879183844
 51
270.0152955044301
  0
ARC
  8
PIC44
  6
CONTINUOUS
 62
     7
 10
-4.49930033399166
 20
-10.6312018068389
 40
2.62089491760187
 50
269.98470449557
 51
287.1273120816156
  0
ARC
  8
PIC44
  6
CONTINUOUS
 62
     7
 10
-4.47783328644284
 20
-10.69689799707349
 40
2.551790482924855
 50
287.1010916339231
 51
304.5530454426411
  0
ARC
  8
PIC44
  6
CONTINUOUS
 62
     7
 10
-4.414728340383031
 20
-10.78756036923083
 40
2.441329716384948
 50
304.540080196445
 51
322.5167248502588
  0
ARC
  8
PIC44
  6
CONTINUOUS
 62
     7
 10
-4.328607505911314
 20
-10.853993121999
 40
2.332563873361291
 50
322.5243236278847
 51
341.0579026412579
  0
ARC
  8
PIC44
  6
CONTINUOUS
 62
     7
 10
-4.266202225859809
 20
-10.87659222320287
 40
2.266202345558825
 50
341.0861627507737
 51
359.9813776888249
  0
LINE
  8
PIC44
  6
CONTINUOUS
 62
     7
 10
-7.0
 20
-10.87732878573645
 11
-7.0
 21
-10.03209226225506
  0
ARC
  8
PIC44
  6
CONTINUOUS
 62
     7
 10
-4.705205196771198
 20
-10.03141467840447
 40
0.9947950339898689
 50
180.0390258260043
 51
199.7865451867622
  0
ARC
  8
PIC44
  6
CONTINUOUS
 62
     7
 10
-4.650431844802276
 20
-10.0106251523082
 40
1.05337268457208
 50
199.8420480302932
 51
218.8472653321599
  0
ARC
  8
PIC44
  6
CONTINUOUS
 62
     7
 10
-4.574843260399104
 20
-9.949511861347558
 40
1.150575758361144
 50
218.8564094714385
 51
236.7710681664707
  0
ARC
  8
PIC44
  6
CONTINUOUS
 62
     7
 10
-4.519455808909986
 20
-9.866109086391397
 40
1.25069284250052
 50
236.7423263826876
 51
253.6839268193905
  0
ARC
  8
PIC44
  6
CONTINUOUS
 62
     7
 10
-4.500614099520144
 20
-9.805673379281302
 40
1.313988370919102
 50
253.6357732855295
 51
270.0267774911596
  0
ARC
  8
PIC44
  6
CONTINUOUS
 62
     7
 10
-4.499385900479856
 20
-9.805673379281302
 40
1.313988370919102
 50
269.9732225088404
 51
286.3642267144705
  0
ARC
  8
PIC44
  6
CONTINUOUS
 62
     7
 10
-4.480544191089952
 20
-9.86610908639153
 40
1.250692842500375
 50
286.3160731806085
 51
303.2576736173133
  0
ARC
  8
PIC44
  6
CONTINUOUS
 62
     7
 10
-4.425156739600896
 20
-9.949511861347558
 40
1.150575758361143
 50
303.2289318335293
 51
321.1435905285615
  0
ARC
  8
PIC44
  6
CONTINUOUS
 62
     7
 10
-4.349568155197751
 20
-10.01062515230819
 40
1.053372684572112
 50
321.1527346678404
 51
340.1579519697065
  0
ARC
  8
PIC44
  6
CONTINUOUS
 62
     7
 10
-4.294794803228801
 20
-10.03141467840447
 40
0.9947950339898682
 50
340.2134548132378
 51
359.9609741739957
  0
ARC
  8
PIC44
  6
CONTINUOUS
 62
     7
 10
-4.294794803228801
 20
-10.03276984610564
 40
0.994795033989868
 50
0.03902582600430447
 51
19.7865451867622
  0
ARC
  8
PIC44
  6
CONTINUOUS
 62
     7
 10
-4.349568155197725
 20
-10.05355937220191
 40
1.053372684572083
 50
19.8420480302933
 51
38.84726533215989
  0
ARC
  8
PIC44
  6
CONTINUOUS
 62
     7
 10
-4.425156739600952
 20
-10.11467266316262
 40
1.150575758361227
 50
38.85640947143919
 51
56.77106816647003
  0
ARC
  8
PIC44
  6
CONTINUOUS
 62
     7
 10
-4.480544191090012
 20
-10.19807543811871
 40
1.250692842500516
 50
56.74232638268762
 51
73.68392681939058
  0
ARC
  8
PIC44
  6
CONTINUOUS
 62
     7
 10
-4.499385900479856
 20
-10.25851114522881
 40
1.313988370919102
 50
73.6357732855295
 51
90.02677749115962
  0
ARC
  8
PIC44
  6
CONTINUOUS
 62
     7
 10
-4.500614099520166
 20
-10.25851114522865
 40
1.313988370918946
 50
89.97322250883943
 51
106.3642267144715
  0
ARC
  8
PIC44
  6
CONTINUOUS
 62
     7
 10
-4.519455808910048
 20
-10.19807543811858
 40
1.250692842500375
 50
106.3160731806085
 51
123.2576736173134
  0
ARC
  8
PIC44
  6
CONTINUOUS
 62
     7
 10
-4.574843260399104
 20
-10.11467266316256
 40
1.150575758361145
 50
123.2289318335293
 51
141.1435905285614
  0
ARC
  8
PIC44
  6
CONTINUOUS
 62
     7
 10
-4.650431844802275
 20
-10.05355937220191
 40
1.053372684572081
 50
141.1527346678402
 51
160.1579519697068
  0
ARC
  8
PIC44
  6
CONTINUOUS
 62
     7
 10
-4.705205196771198
 20
-10.03276984610564
 40
0.9947950339898691
 50
160.2134548132378
 51
179.9609741739957
  0
ARC
  8
PIC44
  6
CONTINUOUS
 62
     7
 10
-4.628932181756887
 20
-9.214088039689951
 40
1.079209326974508
 50
203.3047224865183
 51
221.1370160507956
  0
ARC
  8
PIC44
  6
CONTINUOUS
 62
     7
 10
-4.567478189384727
 20
-9.158840290231538
 40
1.161838689230169
 50
221.1952550955754
 51
238.2353027808146
  0
ARC
  8
PIC44
  6
CONTINUOUS
 62
     7
 10
-4.51723810960341
 20
-9.078838478718469
 40
1.256305737061286
 50
238.2079632748094
 51
254.379631061476
  0
ARC
  8
PIC44
  6
CONTINUOUS
 62
     7
 10
-4.500539562102234
 20
-9.022752908631057
 40
1.314816546523152
 50
254.3369214989662
 51
270.023512506132
  0
ARC
  8
PIC44
  6
CONTINUOUS
 62
     7
 10
-4.499460437897777
 20
-9.022752908630988
 40
1.314816546523221
 50
269.976487493871
 51
285.6630785010359
  0
ARC
  8
PIC44
  6
CONTINUOUS
 62
     7
 10
-4.482761890396517
 20
-9.078838478718636
 40
1.256305737061104
 50
285.6203689385255
 51
301.7920367251943
  0
ARC
  8
PIC44
  6
CONTINUOUS
 62
     7
 10
-4.432521810615256
 20
-9.158840290231554
 40
1.161838689230145
 50
301.764697219188
 51
318.8047449044274
  0
ARC
  8
PIC44
  6
CONTINUOUS
 62
     7
 10
-4.37106781824317
 20
-9.214088039689914
 40
1.079209326974576
 50
318.8629839492078
 51
336.6952775134838
  0
LINE
  8
PIC44
  6
CONTINUOUS
 62
     7
 10
-2.0
 20
-10.87732878573645
 11
-2.0
 21
-10.03209226225506
  0
ARC
  8
PIC44
  6
CONTINUOUS
 62
     7
 10
4.614049996992172
 20
10.09448764522654
 40
2.401768482668608
 50
310.5344463969956
 51
329.1019254258104
  0
ARC
  8
PIC44
  6
CONTINUOUS
 62
     7
 10
4.699801518889119
 20
10.04232488179425
 40
2.301400518938734
 50
329.1199866539905
 51
348.2278301718576
  0
ARC
  8
PIC44
  6
CONTINUOUS
 62
     7
 10
4.742196210540057
 20
10.0320461009634
 40
2.257800891282865
 50
348.2636925328684
 51
7.61785666541682
  0
ARC
  8
PIC44
  6
CONTINUOUS
 62
     7
 10
4.713960172944296
 20
10.02673752121624
 40
2.286491963120725
 50
7.655910540666715
 51
26.84709726602146
  0
ARC
  8
PIC44
  6
CONTINUOUS
 62
     7
 10
4.633788514761731
 20
9.98515458948923
 40
2.376801792361143
 50
26.86866032285638
 51
45.56843453899132
  0
ARC
  8
PIC44
  6
CONTINUOUS
 62
     7
 10
4.551484227607063
 20
9.901344275862105
 40
2.494267339395168
 50
45.56612718746638
 51
63.67157477003129
  0
ARC
  8
PIC44
  6
CONTINUOUS
 62
     7
 10
4.507174025441997
 20
9.814003609292534
 40
2.5922003165098
 50
63.64998494504613
 51
81.29459436735911
  0
ARC
  8
PIC44
  6
CONTINUOUS
 62
     7
 10
4.500000000000003
 20
9.776675757374525
 40
2.630184350194513
 50
81.26318943477781
 51
98.73681056522194
  0
ARC
  8
PIC44
  6
CONTINUOUS
 62
     7
 10
4.492825974557966
 20
9.814003609292648
 40
2.592200316509682
 50
98.70540563264008
 51
116.350015054954
  0
ARC
  8
PIC44
  6
CONTINUOUS
 62
     7
 10
4.448515772392925
 20
9.901344275862122
 40
2.494267339395146
 50
116.3284252299684
 51
134.4338728125335
  0
ARC
  8
PIC44
  6
CONTINUOUS
 62
     7
 10
4.366211485238265
 20
9.985154589489234
 40
2.376801792361137
 50
134.4315654610085
 51
153.1313396771436
  0
ARC
  8
PIC44
  6
CONTINUOUS
 62
     7
 10
4.286039827055633
 20
10.02673752121626
 40
2.28649196312065
 50
153.1529027339781
 51
172.3440894593335
  0
ARC
  8
PIC44
  6
CONTINUOUS
 62
     7
 10
4.257803789459963
 20
10.0320461009634
 40
2.257800891282885
 50
172.3821433345833
 51
191.7363074671317
  0
ARC
  8
PIC44
  6
CONTINUOUS
 62
     7
 10
4.300198481110858
 20
10.04232488179424
 40
2.301400518938709
 50
191.7721698281424
 51
210.8800133460098
  0
ARC
  8
PIC44
  6
CONTINUOUS
 62
     7
 10
4.385950003007857
 20
10.09448764522656
 40
2.401768482668647
 50
210.89807457419
 51
229.4655536030043
  0
ARC
  8
PIC44
  6
CONTINUOUS
 62
     7
 10
4.733797774140171
 20
10.87659222320287
 40
2.266202345558845
 50
0.01862231117519448
 51
18.91383724922618
  0
ARC
  8
PIC44
  6
CONTINUOUS
 62
     7
 10
4.67139249408875
 20
10.85399312199903
 40
2.332563873361221
 50
18.94209735874186
 51
37.47567637211571
  0
ARC
  8
PIC44
  6
CONTINUOUS
 62
     7
 10
4.58527165961698
 20
10.78756036923084
 40
2.44132971638493
 50
37.48327514974112
 51
55.45991980355502
  0
ARC
  8
PIC44
  6
CONTINUOUS
 62
     7
 10
4.522166713557152
 20
10.69689799707346
 40
2.551790482924877
 50
55.446954557359
 51
72.89890836607688
  0
ARC
  8
PIC44
  6
CONTINUOUS
 62
     7
 10
4.500699666008341
 20
10.6312018068389
 40
2.620894917601867
 50
72.87268791838442
 51
90.01529550443004
  0
ARC
  8
PIC44
  6
CONTINUOUS
 62
     7
 10
4.499300333991665
 20
10.63120180683883
 40
2.620894917601945
 50
89.9847044955701
 51
107.1273120816152
  0
ARC
  8
PIC44
  6
CONTINUOUS
 62
     7
 10
4.477833286442878
 20
10.69689799707342
 40
2.551790482924931
 50
107.1010916339235
 51
124.553045442641
  0
ARC
  8
PIC44
  6
CONTINUOUS
 62
     7
 10
4.414728340383013
 20
10.78756036923084
 40
2.441329716384921
 50
124.5400801964449
 51
142.5167248502589
  0
ARC
  8
PIC44
  6
CONTINUOUS
 62
     7
 10
4.328607505911272
 20
10.85399312199902
 40
2.332563873361246
 50
142.5243236278844
 51
161.057902641258
  0
ARC
  8
PIC44
  6
CONTINUOUS
 62
     7
 10
4.266202225859809
 20
10.87659222320287
 40
2.266202345558825
 50
161.0861627507737
 51
179.9813776888249
  0
LINE
  8
PIC44
  6
CONTINUOUS
 62
     7
 10
7.0
 20
10.87732878573645
 11
7.0
 21
10.03209226225506
  0
ARC
  8
PIC44
  6
CONTINUOUS
 62
     7
 10
4.705205196771223
 20
10.03141467840448
 40
0.9947950339898439
 50
0.0390258260041008
 51
19.78654518676238
  0
ARC
  8
PIC44
  6
CONTINUOUS
 62
     7
 10
4.650431844802323
 20
10.01062515230823
 40
1.053372684572027
 50
19.84204803029275
 51
38.84726533216035
  0
ARC
  8
PIC44
  6
CONTINUOUS
 62
     7
 10
4.574843260399062
 20
9.949511861347515
 40
1.150575758361202
 50
38.85640947143881
 51
56.77106816647011
  0
ARC
  8
PIC44
  6
CONTINUOUS
 62
     7
 10
4.519455808910023
 20
9.866109086391464
 40
1.250692842500443
 50
56.74232638268735
 51
73.68392681939125
  0
ARC
  8
PIC44
  6
CONTINUOUS
 62
     7
 10
4.500614099520144
 20
9.805673379281297
 40
1.313988370919105
 50
73.63577328552954
 51
90.02677749115962
  0
ARC
  8
PIC44
  6
CONTINUOUS
 62
     7
 10
4.499385900479856
 20
9.805673379281297
 40
1.313988370919105
 50
89.97322250884039
 51
106.3642267144705
  0
ARC
  8
PIC44
  6
CONTINUOUS
 62
     7
 10
4.480544191089977
 20
9.866109086391464
 40
1.250692842500443
 50
106.3160731806088
 51
123.2576736173127
  0
ARC
  8
PIC44
  6
CONTINUOUS
 62
     7
 10
4.425156739600937
 20
9.949511861347517
 40
1.1505757583612
 50
123.2289318335299
 51
141.1435905285613
  0
ARC
  8
PIC44
  6
CONTINUOUS
 62
     7
 10
4.349568155197718
 20
10.0106251523082
 40
1.053372684572075
 50
141.15273466784
 51
160.1579519697067
  0
ARC
  8
PIC44
  6
CONTINUOUS
 62
     7
 10
4.294794803228801
 20
10.03141467840447
 40
0.9947950339898682
 50
160.2134548132378
 51
179.9609741739957
  0
ARC
  8
PIC44
  6
CONTINUOUS
 62
     7
 10
4.294794803228797
 20
10.03276984610564
 40
0.9947950339898635
 50
180.0390258260043
 51
199.7865451867622
  0
ARC
  8
PIC44
  6
CONTINUOUS
 62
     7
 10
4.349568155197678
 20
10.05355937220188
 40
1.053372684572029
 50
199.8420480302928
 51
218.8472653321604
  0
ARC
  8
PIC44
  6
CONTINUOUS
 62
     7
 10
4.425156739600872
 20
10.11467266316253
 40
1.150575758361109
 50
218.8564094714383
 51
236.771068166471
  0
ARC
  8
PIC44
  6
CONTINUOUS
 62
     7
 10
4.480544191089952
 20
10.19807543811858
 40
1.250692842500373
 50
236.7423263826866
 51
253.6839268193915
  0
ARC
  8
PIC44
  6
CONTINUOUS
 62
     7
 10
4.499385900479856
 20
10.25851114522881
 40
1.313988370919105
 50
253.6357732855295
 51
270.0267774911596
  0
ARC
  8
PIC44
  6
CONTINUOUS
 62
     7
 10
4.500614099520144
 20
10.25851114522881
 40
1.313988370919105
 50
269.9732225088404
 51
286.3642267144705
  0
ARC
  8
PIC44
  6
CONTINUOUS
 62
     7
 10
4.519455808910023
 20
10.19807543811865
 40
1.250692842500443
 50
286.3160731806088
 51
303.2576736173127
  0
ARC
  8
PIC44
  6
CONTINUOUS
 62
     7
 10
4.574843260399062
 20
10.1146726631626
 40
1.150575758361202
 50
303.2289318335299
 51
321.1435905285612
  0
ARC
  8
PIC44
  6
CONTINUOUS
 62
     7
 10
4.650431844802308
 20
10.05355937220189
 40
1.053372684572046
 50
321.1527346678397
 51
340.1579519697069
  0
ARC
  8
PIC44
  6
CONTINUOUS
 62
     7
 10
4.705205196771198
 20
10.03276984610564
 40
0.9947950339898691
 50
340.2134548132378
 51
359.9609741739957
  0
ARC
  8
PIC44
  6
CONTINUOUS
 62
     7
 10
4.628932181756861
 20
9.214088039689937
 40
1.079209326974538
 50
23.3047224865185
 51
41.13701605079528
  0
ARC
  8
PIC44
  6
CONTINUOUS
 62
     7
 10
4.567478189384695
 20
9.158840290231499
 40
1.161838689230219
 50
41.19525509557575
 51
58.23530278081417
  0
ARC
  8
PIC44
  6
CONTINUOUS
 62
     7
 10
4.517238109603463
 20
9.078838478718584
 40
1.25630573706116
 50
58.20796327480868
 51
74.37963106147684
  0
ARC
  8
PIC44
  6
CONTINUOUS
 62
     7
 10
4.500539562102216
 20
9.022752908630968
 40
1.314816546523242
 50
74.33692149896646
 51
90.02351250613118
  0
ARC
  8
PIC44
  6
CONTINUOUS
 62
     7
 10
4.499460437897779
 20
9.022752908630977
 40
1.314816546523234
 50
89.97648749387111
 51
105.6630785010359
  0
ARC
  8
PIC44
  6
CONTINUOUS
 62
     7
 10
4.482761890396529
 20
9.078838478718613
 40
1.256305737061132
 50
105.6203689385257
 51
121.7920367251942
  0
ARC
  8
PIC44
  6
CONTINUOUS
 62
     7
 10
4.432521810615206
 20
9.15884029023162
 40
1.161838689230065
 50
121.7646972191875
 51
138.8047449044282
  0
ARC
  8
PIC44
  6
CONTINUOUS
 62
     7
 10
4.371067818243127
 20
9.214088039689937
 40
1.079209326974527
 50
138.8629839492072
 51
156.6952775134839
  0
LINE
  8
PIC44
  6
CONTINUOUS
 62
     7
 10
2.825028442769479
 20
8.269106663863099
 11
6.174971557230521
 21
8.269106663863099
  0
LINE
  8
PIC44
  6
CONTINUOUS
 62
     7
 10
2.0
 20
10.87732878573645
 11
2.0
 21
10.03209226225506
  0
LINE
  8
PIC44
  6
CONTINUOUS
 62
     7
 10
2.0
 20
-10.87732878573645
 11
2.0
 21
-10.03209226225506
  0
ARC
  8
PIC44
  6
CONTINUOUS
 62
     7
 10
4.385950003007832
 20
-10.09448764522655
 40
2.401768482668618
 50
130.5344463969955
 51
149.1019254258104
  0
ARC
  8
PIC44
  6
CONTINUOUS
 62
     7
 10
4.300198481110877
 20
-10.04232488179425
 40
2.301400518938731
 50
149.1199866539905
 51
168.2278301718577
  0
ARC
  8
PIC44
  6
CONTINUOUS
 62
     7
 10
4.257803789460006
 20
-10.0320461009634
 40
2.257800891282927
 50
168.2636925328688
 51
187.6178566654168
  0
ARC
  8
PIC44
  6
CONTINUOUS
 62
     7
 10
4.286039827055653
 20
-10.02673752121626
 40
2.286491963120672
 50
187.6559105406668
 51
206.847097266022
  0
ARC
  8
PIC44
  6
CONTINUOUS
 62
     7
 10
4.366211485238221
 20
-9.985154589489262
 40
2.376801792361085
 50
206.8686603228564
 51
225.5684345389918
  0
ARC
  8
PIC44
  6
CONTINUOUS
 62
     7
 10
4.448515772392891
 20
-9.901344275862172
 40
2.494267339395085
 50
225.5661271874663
 51
243.6715747700318
  0
ARC
  8
PIC44
  6
CONTINUOUS
 62
     7
 10
4.492825974557997
 20
-9.814003609292552
 40
2.59220031650978
 50
243.6499849450463
 51
261.2945943673594
  0
ARC
  8
PIC44
  6
CONTINUOUS
 62
     7
 10
4.500000000000002
 20
-9.776675757374457
 40
2.630184350194579
 50
261.2631894347782
 51
278.7368105652218
  0
ARC
  8
PIC44
  6
CONTINUOUS
 62
     7
 10
4.507174025442015
 20
-9.814003609292593
 40
2.592200316509739
 50
278.7054056326405
 51
296.3500150549539
  0
ARC
  8
PIC44
  6
CONTINUOUS
 62
     7
 10
4.551484227607109
 20
-9.90134427586217
 40
2.494267339395087
 50
296.3284252299683
 51
314.4338728125338
  0
ARC
  8
PIC44
  6
CONTINUOUS
 62
     7
 10
4.633788514761725
 20
-9.985154589489222
 40
2.376801792361151
 50
314.4315654610085
 51
333.1313396771433
  0
ARC
  8
PIC44
  6
CONTINUOUS
 62
     7
 10
4.713960172944342
 20
-10.02673752121626
 40
2.286491963120677
 50
333.1529027339781
 51
352.3440894593333
  0
ARC
  8
PIC44
  6
CONTINUOUS
 62
     7
 10
4.742196210540026
 20
-10.0320461009634
 40
2.257800891282896
 50
352.3821433345831
 51
11.73630746713126
  0
ARC
  8
PIC44
  6
CONTINUOUS
 62
     7
 10
4.699801518889098
 20
-10.04232488179426
 40
2.301400518938757
 50
11.77216982814228
 51
30.8800133460092
  0
ARC
  8
PIC44
  6
CONTINUOUS
 62
     7
 10
4.614049996992153
 20
-10.09448764522656
 40
2.401768482668635
 50
30.89807457418954
 51
49.4655536030044
  0
LINE
  8
PIC44
  6
CONTINUOUS
 62
     7
 10
2.825028442769479
 20
-8.269106663863099
 11
6.174971557230521
 21
-8.269106663863099
  0
ARC
  8
PIC44
  6
CONTINUOUS
 62
     7
 10
4.371067818243125
 20
-9.214088039689941
 40
1.079209326974524
 50
203.3047224865158
 51
221.1370160507928
  0
ARC
  8
PIC44
  6
CONTINUOUS
 62
     7
 10
4.432521810615257
 20
-9.158840290231554
 40
1.161838689230146
 50
221.1952550955726
 51
238.235302780812
  0
ARC
  8
PIC44
  6
CONTINUOUS
 62
     7
 10
4.48276189039652
 20
-9.078838478718629
 40
1.256305737061112
 50
238.2079632748057
 51
254.3796310614745
  0
ARC
  8
PIC44
  6
CONTINUOUS
 62
     7
 10
4.499460437897779
 20
-9.022752908630983
 40
1.314816546523226
 50
254.3369214989641
 51
270.0235125061289
  0
ARC
  8
PIC44
  6
CONTINUOUS
 62
     7
 10
4.500539562102232
 20
-9.022752908631057
 40
1.314816546523152
 50
269.976487493868
 51
285.6630785010338
  0
ARC
  8
PIC44
  6
CONTINUOUS
 62
     7
 10
4.517238109603437
 20
-9.078838478718524
 40
1.256305737061225
 50
285.6203689385234
 51
301.7920367251907
  0
ARC
  8
PIC44
  6
CONTINUOUS
 62
     7
 10
4.567478189384728
 20
-9.158840290231543
 40
1.161838689230164
 50
301.7646972191854
 51
318.8047449044246
  0
ARC
  8
PIC44
  6
CONTINUOUS
 62
     7
 10
4.628932181756896
 20
-9.214088039689953
 40
1.079209326974499
 50
318.862983949204
 51
336.6952775134815
  0
ARC
  8
PIC44
  6
CONTINUOUS
 62
     7
 10
4.705205196771198
 20
-10.03276984610564
 40
0.9947950339898689
 50
0.03902582600430444
 51
19.78654518676218
  0
ARC
  8
PIC44
  6
CONTINUOUS
 62
     7
 10
4.650431844802276
 20
-10.05355937220191
 40
1.05337268457208
 50
19.84204803029324
 51
38.84726533215987
  0
ARC
  8
PIC44
  6
CONTINUOUS
 62
     7
 10
4.574843260399104
 20
-10.11467266316255
 40
1.150575758361144
 50
38.85640947143853
 51
56.77106816647068
  0
ARC
  8
PIC44
  6
CONTINUOUS
 62
     7
 10
4.519455808909986
 20
-10.19807543811871
 40
1.25069284250052
 50
56.74232638268762
 51
73.68392681939051
  0
ARC
  8
PIC44
  6
CONTINUOUS
 62
     7
 10
4.500614099520144
 20
-10.25851114522881
 40
1.313988370919102
 50
73.6357732855295
 51
90.02677749115962
  0
ARC
  8
PIC44
  6
CONTINUOUS
 62
     7
 10
4.499385900479856
 20
-10.25851114522881
 40
1.313988370919102
 50
89.97322250884039
 51
106.3642267144705
  0
ARC
  8
PIC44
  6
CONTINUOUS
 62
     7
 10
4.480544191090014
 20
-10.19807543811871
 40
1.25069284250052
 50
106.3160731806095
 51
123.2576736173124
  0
ARC
  8
PIC44
  6
CONTINUOUS
 62
     7
 10
4.425156739600896
 20
-10.11467266316255
 40
1.150575758361143
 50
123.2289318335293
 51
141.1435905285615
  0
ARC
  8
PIC44
  6
CONTINUOUS
 62
     7
 10
4.349568155197751
 20
-10.05355937220192
 40
1.053372684572112
 50
141.1527346678404
 51
160.1579519697065
  0
ARC
  8
PIC44
  6
CONTINUOUS
 62
     7
 10
4.294794803228801
 20
-10.03276984610564
 40
0.9947950339898682
 50
160.2134548132378
 51
179.9609741739957
  0
ARC
  8
PIC44
  6
CONTINUOUS
 62
     7
 10
4.294794803228801
 20
-10.03141467840447
 40
0.994795033989868
 50
180.0390258260043
 51
199.7865451867622
  0
ARC
  8
PIC44
  6
CONTINUOUS
 62
     7
 10
4.349568155197725
 20
-10.0106251523082
 40
1.053372684572083
 50
199.8420480302933
 51
218.8472653321599
  0
ARC
  8
PIC44
  6
CONTINUOUS
 62
     7
 10
4.425156739600877
 20
-9.949511861347579
 40
1.150575758361116
 50
218.8564094714383
 51
236.7710681664709
  0
ARC
  8
PIC44
  6
CONTINUOUS
 62
     7
 10
4.480544191090014
 20
-9.866109086391397
 40
1.25069284250052
 50
236.7423263826876
 51
253.6839268193905
  0
ARC
  8
PIC44
  6
CONTINUOUS
 62
     7
 10
4.499385900479856
 20
-9.805673379281302
 40
1.313988370919102
 50
253.6357732855295
 51
270.0267774911596
  0
ARC
  8
PIC44
  6
CONTINUOUS
 62
     7
 10
4.500614099520168
 20
-9.805673379281471
 40
1.313988370918933
 50
269.9732225088393
 51
286.3642267144716
  0
ARC
  8
PIC44
  6
CONTINUOUS
 62
     7
 10
4.519455808909986
 20
-9.866109086391397
 40
1.25069284250052
 50
286.3160731806095
 51
303.2576736173124
  0
ARC
  8
PIC44
  6
CONTINUOUS
 62
     7
 10
4.574843260399104
 20
-9.949511861347556
 40
1.150575758361145
 50
303.2289318335293
 51
321.1435905285614
  0
ARC
  8
PIC44
  6
CONTINUOUS
 62
     7
 10
4.650431844802275
 20
-10.0106251523082
 40
1.053372684572081
 50
321.1527346678402
 51
340.1579519697068
  0
ARC
  8
PIC44
  6
CONTINUOUS
 62
     7
 10
4.705205196771198
 20
-10.03141467840447
 40
0.9947950339898691
 50
340.2134548132378
 51
359.9609741739957
  0
ARC
  8
PIC44
  6
CONTINUOUS
 62
     7
 10
4.266202225859808
 20
-10.87659222320287
 40
2.266202345558824
 50
180.0186223111751
 51
198.9138372492263
  0
ARC
  8
PIC44
  6
CONTINUOUS
 62
     7
 10
4.328607505911312
 20
-10.853993121999
 40
2.332563873361289
 50
198.942097358742
 51
217.4756763721153
  0
ARC
  8
PIC44
  6
CONTINUOUS
 62
     7
 10
4.414728340383105
 20
-10.78756036923075
 40
2.441329716385053
 50
217.4832751497416
 51
235.4599198035546
  0
ARC
  8
PIC44
  6
CONTINUOUS
 62
     7
 10
4.477833286442845
 20
-10.69689799707347
 40
2.551790482924869
 50
235.4469545573589
 51
252.8989083660769
  0
ARC
  8
PIC44
  6
CONTINUOUS
 62
     7
 10
4.499300333991657
 20
-10.63120180683891
 40
2.620894917601865
 50
252.8726879183844
 51
270.0152955044301
  0
ARC
  8
PIC44
  6
CONTINUOUS
 62
     7
 10
4.500699666008336
 20
-10.63120180683884
 40
2.62089491760194
 50
269.98470449557
 51
287.1273120816152
  0
ARC
  8
PIC44
  6
CONTINUOUS
 62
     7
 10
4.522166713557123
 20
-10.69689799707343
 40
2.551790482924928
 50
287.1010916339235
 51
304.553045442641
  0
ARC
  8
PIC44
  6
CONTINUOUS
 62
     7
 10
4.585271659616995
 20
-10.78756036923086
 40
2.44132971638491
 50
304.5400801964449
 51
322.5167248502589
  0
ARC
  8
PIC44
  6
CONTINUOUS
 62
     7
 10
4.671392494088686
 20
-10.853993121999
 40
2.332563873361292
 50
322.5243236278846
 51
341.0579026412579
  0
ARC
  8
PIC44
  6
CONTINUOUS
 62
     7
 10
4.733797774140145
 20
-10.87659222320287
 40
2.266202345558871
 50
341.086162750774
 51
359.9813776888248
  0
LINE
  8
PIC44
  6
CONTINUOUS
 62
     7
 10
7.0
 20
-10.87732878573645
 11
7.0
 21
-10.03209226225506
  0
LINE
  8
PIC44
  6
CONTINUOUS
 62
     7
 10
-7.499999999999995
 20
4.873397172404482
 11
-7.499999999999995
 21
11.71793497165777
  0
ARC
  8
PIC44
  6
CONTINUOUS
 62
     7
 10
-10.0
 20
0.0
 40
5.184176841354359
 50
306.565579851597
 51
53.43442014840302
  0
LINE
  8
PIC44
  6
CONTINUOUS
 62
     7
 10
-7.315823158645642
 20
11.81822227869807
 11
-7.315823158645642
 21
4.966979384572862
  0
LINE
  8
PIC44
  6
CONTINUOUS
 62
     7
 10
-7.315823158645642
 20
-4.966979384572861
 11
-7.315823158645642
 21
-11.81822227869807
  0
ARC
  8
PIC44
  6
CONTINUOUS
 62
     7
 10
-6.315823158645642
 20
-4.966979384572861
 40
1.0
 50
126.565579851597
 51
180.0
  0
ARC
  8
PIC44
  6
CONTINUOUS
 62
     7
 10
-6.315823158645642
 20
4.966979384572862
 40
1.0
 50
180.0
 51
233.434420148403
  0
ARC
  8
PIC44
  6
CONTINUOUS
 62
     7
 10
-6.499999999999995
 20
4.873397172404482
 40
1.0
 50
180.0
 51
234.3146652873479
  0
ARC
  8
PIC44
  6
CONTINUOUS
 62
     7
 10
-6.5
 20
-4.873397172404487
 40
1.0
 50
125.685334712652
 51
180.0
  0
ARC
  8
PIC44
  6
CONTINUOUS
 62
     7
 10
-6.315823158645642
 20
11.81822227869807
 40
1.0
 50
118.1206700134621
 51
180.0
  0
ARC
  8
PIC44
  6
CONTINUOUS
 62
     7
 10
-6.499999999999995
 20
11.71793497165777
 40
1.0
 50
119.0173618730947
 51
180.0
  0
ARC
  8
PIC44
  6
CONTINUOUS
 62
     7
 10
-6.315823158645642
 20
-11.81822227869807
 40
1.0
 50
180.0
 51
241.8793299865379
  0
ARC
  8
PIC44
  6
CONTINUOUS
 62
     7
 10
-6.5
 20
-11.71793497165776
 40
1.0
 50
180.0
 51
240.9826381269052
  0
ARC
  8
PIC44
  6
CONTINUOUS
 62
     7
 10
10.0
 20
0.0
 40
5.184176841354359
 50
126.565579851597
 51
233.434420148403
  0
ARC
  8
PIC44
  6
CONTINUOUS
 62
     7
 10
6.315823158645642
 20
4.966979384572863
 40
1.0
 50
306.565579851597
 51
0.0
  0
ARC
  8
PIC44
  6
CONTINUOUS
 62
     7
 10
6.499999999999995
 20
4.873397172404481
 40
1.0
 50
305.6853347126522
 51
0.0
  0
ARC
  8
PIC44
  6
CONTINUOUS
 62
     7
 10
10.0
 20
0.0
 40
5.000000000000004
 50
125.6853347126521
 51
234.314665287348
  0
LINE
  8
PIC44
  6
CONTINUOUS
 62
     7
 10
7.315823158645642
 20
11.81822227869807
 11
7.315823158645642
 21
4.966979384572863
  0
LINE
  8
PIC44
  6
CONTINUOUS
 62
     7
 10
7.499999999999995
 20
4.873397172404481
 11
7.499999999999995
 21
11.71793497165777
  0
ARC
  8
PIC44
  6
CONTINUOUS
 62
     7
 10
6.315823158645642
 20
-4.966979384572861
 40
1.0
 50
0.0
 51
53.43442014840302
  0
ARC
  8
PIC44
  6
CONTINUOUS
 62
     7
 10
6.5
 20
-4.873397172404488
 40
1.0
 50
0.0
 51
54.31466528734799
  0
LINE
  8
PIC44
  6
CONTINUOUS
 62
     7
 10
7.315823158645642
 20
-4.966979384572861
 11
7.315823158645642
 21
-11.81822227869807
  0
LINE
  8
PIC44
  6
CONTINUOUS
 62
     7
 10
7.5
 20
-11.71793497165776
 11
7.5
 21
-4.873397172404488
  0
ARC
  8
PIC44
  6
CONTINUOUS
 62
     7
 10
6.5
 20
-11.71793497165776
 40
1.0
 50
299.0173618730948
 51
0.0
  0
ARC
  8
PIC44
  6
CONTINUOUS
 62
     7
 10
6.315823158645642
 20
-11.81822227869807
 40
1.0
 50
298.1206700134621
 51
0.0
  0
ARC
  8
PIC44
  6
CONTINUOUS
 62
     7
 10
6.315823158645642
 20
11.81822227869807
 40
1.0
 50
0.0
 51
61.87932998653794
  0
ARC
  8
PIC44
  6
CONTINUOUS
 62
     7
 10
-1.7625
 20
-5.0125
 40
0.7500000000000001
 50
143.130102354156
 51
306.869897645844
  0
ARC
  8
PIC44
  6
CONTINUOUS
 62
     7
 10
1.7625
 20
-5.0125
 40
0.75
 50
233.1301023541559
 51
36.86989764584396
  0
ARC
  8
PIC44
  6
CONTINUOUS
 62
     7
 10
1.7625
 20
5.0125
 40
0.750000000000001
 50
323.130102354156
 51
126.869897645844
  0
ARC
  8
PIC44
  6
CONTINUOUS
 62
     7
 10
-1.762499999999999
 20
5.0125
 40
0.7500000000000003
 50
53.13010235415599
 51
216.869897645844
  0
ARC
  8
PIC44
  6
CONTINUOUS
 62
     7
 10
2.762500000000002
 20
4.2625
 40
0.5
 50
143.130102354156
 51
180.0
  0
ARC
  8
PIC44
  6
CONTINUOUS
 62
     7
 10
1.012500000000002
 20
6.012500000000001
 40
0.5
 50
270.0
 51
306.8698976458439
  0
ARC
  8
PIC44
  6
CONTINUOUS
 62
     7
 10
-1.012499999999999
 20
6.0125
 40
0.5
 50
233.130102354156
 51
270.0
  0
ARC
  8
PIC44
  6
CONTINUOUS
 62
     7
 10
-2.762499999999999
 20
4.2625
 40
0.5
 50
0.0
 51
36.86989764584398
  0
ARC
  8
PIC44
  6
CONTINUOUS
 62
     7
 10
-2.7625
 20
-4.2625
 40
0.5
 50
323.130102354156
 51
0.0
  0
ARC
  8
PIC44
  6
CONTINUOUS
 62
     7
 10
-1.0125
 20
-6.0125
 40
0.5
 50
90.0
 51
126.8698976458441
  0
ARC
  8
PIC44
  6
CONTINUOUS
 62
     7
 10
1.012499999999999
 20
-6.012499999999999
 40
0.5
 50
53.1301023541559
 51
90.0
  0
ARC
  8
PIC44
  6
CONTINUOUS
 62
     7
 10
2.762500000000002
 20
-4.262500000000002
 40
0.5
 50
180.0
 51
216.8698976458439
  0
ARC
  8
PIC44
  6
CONTINUOUS
 62
     7
 10
0.0
 20
0.0
 40
14.4
 50
99.99784348756775
 51
119.0173618730947
  0
ARC
  8
PIC44
  6
CONTINUOUS
 62
     7
 10
0.0
 20
0.0
 40
14.4
 50
240.9826381269053
 51
260.0021565124322
  0
ARC
  8
PIC44
  6
CONTINUOUS
 62
     7
 10
6.499999999999995
 20
11.71793497165777
 40
1.0
 50
0.0
 51
60.98263812690532
  0
ARC
  8
PIC44
  6
CONTINUOUS
 62
     7
 10
0.0
 20
0.0
 40
14.4
 50
279.9978434875678
 51
299.0173618730947
  0
ARC
  8
PIC44
  6
CONTINUOUS
 62
     7
 10
0.0
 20
0.0
 40
14.4
 50
60.98263812690529
 51
80.00215651243225
  0
ARC
  8
PIC44
  6
CONTINUOUS
 62
     7
 10
1.352380033094319
 20
-1.776356839400251E-015
 40
15.10238003309432
 50
123.5086107386037
 51
236.4913892613963
  0
ARC
  8
PIC44
  6
CONTINUOUS
 62
     7
 10
-1.352380033094319
 20
0.0
 40
15.10238003309432
 50
303.5086107386037
 51
56.49138926139631
  0
ENDBLK
  8
PIC44
  0
BLOCK
  8
PIC11
  2
COMP1
 70
    64
 10
0.0
 20
0.0
  0
LINE
  8
PIC11
  6
CONTINUOUS
 62
     7
 10
139.99860227108
 20
-23.999760389328
 11
129.1549300153993
 21
-23.999760389328
  0
LINE
  8
PIC11
  6
CONTINUOUS
 62
     7
 10
139.99860227108
 20
-23.999760389328
 11
149.9985024333
 21
-23.999760389328
  0
INSERT
  8
PIC11
  6
CONTINUOUS
 62
     7
  2
MARK1_1
 10
139.99860227108
 20
-23.999760389328
 41
2.5
 42
2.5
 50
0.0
  0
LINE
  8
PIC11
  6
CONTINUOUS
 62
     7
 10
159.99840259552
 20
-23.999760389328
 11
149.9985024333
 21
-23.999760389328
  0
INSERT
  8
PIC11
  6
CONTINUOUS
 62
     7
  2
MARK1_1
 10
159.99840259552
 20
-23.999760389328
 41
2.5
 42
2.5
 50
180.0
  0
LINE
  8
PIC11
  6
CONTINUOUS
 62
     7
 10
139.99860227108
 20
0.0
 11
139.99860227108
 21
-24.99976057797448
  0
LINE
  8
PIC11
  6
CONTINUOUS
 62
     7
 10
159.99840259552
 20
0.0
 11
159.99840259552
 21
-24.99976057797448
  0
TEXT
  8
PIC11
  6
CONTINUOUS
 62
     7
 10
129.6549250235103
 20
-23.39976027614011
 40
2.5
 41
0.6547619344966495
 50
0.0
 51
0.0
  7
STANDARD
  1
%%c
  0
TEXT
  8
PIC11
  6
CONTINUOUS
 62
     7
 10
131.3736750235103
 20
-23.39976027614011
 40
2.5
 41
0.6547619344966495
 50
0.0
 51
0.0
  7
STANDARD
  1
6
  0
TEXT
  8
PIC11
  6
CONTINUOUS
 62
     7
 10
133.0924250235103
 20
-23.39976027614011
 40
2.5
 41
0.6547619344966495
 50
0.0
 51
0.0
  7
STANDARD
  1
0
  0
ENDBLK
  8
PIC11
  0
BLOCK
  8
PIC11
  2
COMP2
 70
    64
 10
0.0
 20
0.0
  0
LINE
  8
PIC11
  6
CONTINUOUS
 62
     7
 10
174.99825283885
 20
-29.99970048666
 11
162.498377636075
 21
-29.99970048666
  0
INSERT
  8
PIC11
  6
CONTINUOUS
 62
     7
  2
MARK1_1
 10
174.99825283885
 20
-29.99970048666
 41
2.5
 42
2.5
 50
180.0
  0
LINE
  8
PIC11
  6
CONTINUOUS
 62
     7
 10
149.9985024333
 20
-29.99970048666
 11
162.498377636075
 21
-29.99970048666
  0
INSERT
  8
PIC11
  6
CONTINUOUS
 62
     7
  2
MARK1_1
 10
149.9985024333
 20
-29.99970048666
 41
2.5
 42
2.5
 50
0.0
  0
LINE
  8
PIC11
  6
CONTINUOUS
 62
     7
 10
174.99825283885
 20
16.83316527307034
 11
174.99825283885
 21
-30.99970067530649
  0
LINE
  8
PIC11
  6
CONTINUOUS
 62
     7
 10
149.9985024333
 20
-14.14300785596367
 11
149.9985024333
 21
-30.99970067530649
  0
TEXT
  8
PIC11
  6
CONTINUOUS
 62
     7
 10
161.0139971108965
 20
-29.39970037347212
 40
2.5
 41
0.6547619344966495
 50
0.0
 51
0.0
  7
STANDARD
  1
7
  0
TEXT
  8
PIC11
  6
CONTINUOUS
 62
     7
 10
162.7327471108965
 20
-29.39970037347212
 40
2.5
 41
0.6547619344966495
 50
0.0
 51
0.0
  7
STANDARD
  1
5
  0
ENDBLK
  8
PIC11
  0
BLOCK
  8
PIC11
  2
COMP3
 70
    64
 10
0.0
 20
0.0
  0
LINE
  8
PIC11
  6
CONTINUOUS
 62
     7
 10
149.9985024333
 20
-29.99970048666
 11
74.99925121665001
 21
-29.99970048666
  0
INSERT
  8
PIC11
  6
CONTINUOUS
 62
     7
  2
MARK1_1
 10
149.9985024333
 20
-29.99970048666
 41
2.5
 42
2.5
 50
180.0
  0
LINE
  8
PIC11
  6
CONTINUOUS
 62
     7
 10
0.0
 20
-29.99970048666
 11
74.99925121665001
 21
-29.99970048666
  0
INSERT
  8
PIC11
  6
CONTINUOUS
 62
     7
  2
MARK1_1
 10
0.0
 20
-29.99970048666
 41
2.5
 42
2.5
 50
0.0
  0
LINE
  8
PIC11
  6
CONTINUOUS
 62
     7
 10
149.9985024333
 20
-4.999950081110001
 11
149.9985024333
 21
-30.99970067530649
  0
LINE
  8
PIC11
  6
CONTINUOUS
 62
     7
 10
0.0
 20
-14.14300785596367
 11
0.0
 21
-30.99970067530649
  0
TEXT
  8
PIC11
  6
CONTINUOUS
 62
     7
 10
72.65549918506849
 20
-29.39970037347212
 40
2.5
 41
0.6547619344966495
 50
0.0
 51
0.0
  7
STANDARD
  1
4
  0
TEXT
  8
PIC11
  6
CONTINUOUS
 62
     7
 10
74.37424918506849
 20
-29.39970037347212
 40
2.5
 41
0.6547619344966495
 50
0.0
 51
0.0
  7
STANDARD
  1
5
  0
TEXT
  8
PIC11
  6
CONTINUOUS
 62
     7
 10
76.09299918506849
 20
-29.39970037347212
 40
2.5
 41
0.6547619344966495
 50
0.0
 51
0.0
  7
STANDARD
  1
0
  0
ENDBLK
  8
PIC11
  0
BLOCK
  8
PIC11
  2
COMP4
 70
    64
 10
0.0
 20
0.0
  0
LINE
  8
PIC11
  6
CONTINUOUS
 62
     7
 10
-24.99975040555
 20
-29.99970048666
 11
-12.499875202775
 21
-29.99970048666
  0
INSERT
  8
PIC11
  6
CONTINUOUS
 62
     7
  2
MARK1_1
 10
-24.99975040555
 20
-29.99970048666
 41
2.5
 42
2.5
 50
0.0
  0
LINE
  8
PIC11
  6
CONTINUOUS
 62
     7
 10
0.0
 20
-29.99970048666
 11
-12.499875202775
 21
-29.99970048666
  0
INSERT
  8
PIC11
  6
CONTINUOUS
 62
     7
  2
MARK1_1
 10
0.0
 20
-29.99970048666
 41
2.5
 42
2.5
 50
180.0
  0
LINE
  8
PIC11
  6
CONTINUOUS
 62
     7
 10
-24.99975040555
 20
16.83316527307034
 11
-24.99975040555
 21
-30.99970067530649
  0
LINE
  8
PIC11
  6
CONTINUOUS
 62
     7
 10
0.0
 20
-4.999950081110001
 11
0.0
 21
-30.99970067530649
  0
TEXT
  8
PIC11
  6
CONTINUOUS
 62
     7
 10
-13.98425064174126
 20
-29.39970037347212
 40
2.5
 41
0.6547619344966495
 50
0.0
 51
0.0
  7
STANDARD
  1
7
  0
TEXT
  8
PIC11
  6
CONTINUOUS
 62
     7
 10
-12.26550064174126
 20
-29.39970037347212
 40
2.5
 41
0.6547619344966495
 50
0.0
 51
0.0
  7
STANDARD
  1
5
  0
ENDBLK
  8
PIC11
  0
BLOCK
  8
PIC11
  2
COMP5
 70
    64
 10
0.0
 20
0.0
  0
LINE
  8
PIC11
  6
CONTINUOUS
 62
     7
 10
-24.99975040555
 20
-35.999640583992
 11
74.99925121665001
 21
-35.999640583992
  0
INSERT
  8
PIC11
  6
CONTINUOUS
 62
     7
  2
MARK1_1
 10
-24.99975040555
 20
-35.999640583992
 41
2.5
 42
2.5
 50
0.0
  0
LINE
  8
PIC11
  6
CONTINUOUS
 62
     7
 10
174.99825283885
 20
-35.999640583992
 11
74.99925121665001
 21
-35.999640583992
  0
INSERT
  8
PIC11
  6
CONTINUOUS
 62
     7
  2
MARK1_1
 10
174.99825283885
 20
-35.999640583992
 41
2.5
 42
2.5
 50
180.0
  0
LINE
  8
PIC11
  6
CONTINUOUS
 62
     7
 10
-24.99975040555
 20
16.83316527307034
 11
-24.99975040555
 21
-36.99964077263849
  0
LINE
  8
PIC11
  6
CONTINUOUS
 62
     7
 10
174.99825283885
 20
16.83316527307034
 11
174.99825283885
 21
-36.99964077263849
  0
TEXT
  8
PIC11
  6
CONTINUOUS
 62
     7
 10
72.65549918506849
 20
-35.39964047080412
 40
2.5
 41
0.6547619344966495
 50
0.0
 51
0.0
  7
STANDARD
  1
6
  0
TEXT
  8
PIC11
  6
CONTINUOUS
 62
     7
 10
74.37424918506849
 20
-35.39964047080412
 40
2.5
 41
0.6547619344966495
 50
0.0
 51
0.0
  7
STANDARD
  1
0
  0
TEXT
  8
PIC11
  6
CONTINUOUS
 62
     7
 10
76.09299918506849
 20
-35.39964047080412
 40
2.5
 41
0.6547619344966495
 50
0.0
 51
0.0
  7
STANDARD
  1
0
  0
ENDBLK
  8
PIC11
  0
BLOCK
  8
PIC11
  2
COMP6
 70
    64
 10
0.0
 20
0.0
  0
LINE
  8
PIC11
  6
CONTINUOUS
 62
     7
 10
95.99904155731201
 20
16.33317026495934
 11
95.99904155731201
 21
21.66645035147667
  0
INSERT
  8
PIC11
  6
CONTINUOUS
 62
     7
  2
MARK1_1
 10
95.99904155731201
 20
16.33317026495934
 41
2.5
 42
2.5
 50
90.0
  0
LINE
  8
PIC11
  6
CONTINUOUS
 62
     7
 10
95.99904155731201
 20
26.999730437994
 11
95.99904155731201
 21
21.66645035147667
  0
INSERT
  8
PIC11
  6
CONTINUOUS
 62
     7
  2
MARK1_1
 10
95.99904155731201
 20
26.999730437994
 41
2.5
 42
2.5
 50
270.0
  0
LINE
  8
PIC11
  6
CONTINUOUS
 62
     7
 10
95.99904155731201
 20
26.999730437994
 11
95.99904155731201
 21
35.68723016953072
  0
TEXT
  8
PIC11
  6
CONTINUOUS
 62
     7
 10
95.39904144412412
 20
30.49973109825669
 40
2.5
 41
0.6547619344966495
 50
90.0
 51
0.0
  7
STANDARD
  1
%%c
  0
TEXT
  8
PIC11
  6
CONTINUOUS
 62
     7
 10
95.39904200580286
 20
32.2184810982566
 40
2.5
 41
0.6547619344966495
 50
90.0
 51
0.0
  7
STANDARD
  1
3
  0
TEXT
  8
PIC11
  6
CONTINUOUS
 62
     7
 10
95.39904256748157
 20
33.9372310982565
 40
2.5
 41
0.6547619344966495
 50
90.0
 51
0.0
  7
STANDARD
  1
2
  0
ENDBLK
  8
PIC11
  0
BLOCK
  8
PIC11
  2
COMP7
 70
    64
 10
0.0
 20
0.0
  0
LINE
  8
PIC11
  6
CONTINUOUS
 62
     7
 10
185.998143017292
 20
0.0
 11
185.998143017292
 21
10.83322517573834
  0
INSERT
  8
PIC11
  6
CONTINUOUS
 62
     7
  2
MARK1_1
 10
185.998143017292
 20
0.0
 41
2.5
 42
2.5
 50
90.0
  0
LINE
  8
PIC11
  6
CONTINUOUS
 62
     7
 10
185.998143017292
 20
21.66645035147667
 11
185.998143017292
 21
10.83322517573834
  0
INSERT
  8
PIC11
  6
CONTINUOUS
 62
     7
  2
MARK1_1
 10
185.998143017292
 20
21.66645035147667
 41
2.5
 42
2.5
 50
270.0
  0
LINE
  8
PIC11
  6
CONTINUOUS
 62
     7
 10
177.2339482913776
 20
0.0
 11
186.998133033514
 21
0.0
  0
LINE
  8
PIC11
  6
CONTINUOUS
 62
     7
 10
179.99820291996
 20
21.66645035147667
 11
186.998133033514
 21
21.66645035147667
  0
TEXT
  8
PIC11
  6
CONTINUOUS
 62
     7
 10
185.3981530765286
 20
9.348850372548611
 40
2.5
 41
0.6547619344966495
 50
90.0
 51
0.0
  7
STANDARD
  1
6
  0
TEXT
  8
PIC11
  6
CONTINUOUS
 62
     7
 10
185.3981536382073
 20
11.06760037254852
 40
2.5
 41
0.6547619344966495
 50
90.0
 51
0.0
  7
STANDARD
  1
5
  0
ENDBLK
  8
PIC11
  0
BLOCK
  8
PIC11
  2
COMP8
 70
    64
 10
0.0
 20
0.0
  0
LINE
  8
PIC11
  6
CONTINUOUS
 62
     7
 10
131.998682141304
 20
0.0
 11
131.998682141304
 21
-2.999999930162915
  0
INSERT
  8
PIC11
  6
CONTINUOUS
 62
     7
  2
MARK1_1
 10
131.998682141304
 20
0.0
 41
2.5
 42
2.5
 50
270.0
  0
LINE
  8
PIC11
  6
CONTINUOUS
 62
     7
 10
131.998682141304
 20
0.0
 11
131.998682141304
 21
1.499985024333
  0
LINE
  8
PIC11
  6
CONTINUOUS
 62
     7
 10
131.998682141304
 20
2.999970048666
 11
131.998682141304
 21
1.499985024333
  0
LINE
  8
PIC11
  6
CONTINUOUS
 62
     7
 10
131.998682141304
 20
2.999970048666
 11
131.998682141304
 21
5.999969978828915
  0
INSERT
  8
PIC11
  6
CONTINUOUS
 62
     7
  2
MARK1_1
 10
131.998682141304
 20
2.999970048666
 41
2.5
 42
2.5
 50
90.0
  0
LINE
  8
PIC11
  6
CONTINUOUS
 62
     7
 10
140.1986023088093
 20
2.999970048666
 11
130.9986819526575
 21
2.999970048666
  0
TEXT
  8
PIC11
  6
CONTINUOUS
 62
     7
 10
131.3986820281161
 20
0.8749850653730817
 40
2.5
 41
0.6547619344966495
 50
90.0
 51
0.0
  7
STANDARD
  1
9
  0
ENDBLK
  8
PIC11
  0
BLOCK
  8
PIC11
  2
COMP9
 70
    64
 10
0.0
 20
0.0
  0
LINE
  8
PIC11
  6
CONTINUOUS
 62
     7
 10
-24.99975040555
 20
41.99958068132401
 11
-4.166625067591667
 21
41.99958068132401
  0
INSERT
  8
PIC11
  6
CONTINUOUS
 62
     7
  2
MARK1_1
 10
-24.99975040555
 20
41.99958068132401
 41
2.5
 42
2.5
 50
0.0
  0
LINE
  8
PIC11
  6
CONTINUOUS
 62
     7
 10
16.66650027036667
 20
41.99958068132401
 11
-4.166625067591667
 21
41.99958068132401
  0
INSERT
  8
PIC11
  6
CONTINUOUS
 62
     7
  2
MARK1_1
 10
16.66650027036667
 20
41.99958068132401
 41
2.5
 42
2.5
 50
180.0
  0
LINE
  8
PIC11
  6
CONTINUOUS
 62
     7
 10
-24.99975040555
 20
26.499735429883
 11
-24.99975040555
 21
42.99958086997049
  0
LINE
  8
PIC11
  6
CONTINUOUS
 62
     7
 10
16.66650027036667
 20
26.999730437994
 11
16.66650027036667
 21
42.99958086997049
  0
TEXT
  8
PIC11
  6
CONTINUOUS
 62
     7
 10
-6.510375191843593
 20
42.59957825140577
 40
2.5
 41
0.6547619344966495
 50
0.0
 51
0.0
  7
STANDARD
  1
1
  0
TEXT
  8
PIC11
  6
CONTINUOUS
 62
     7
 10
-4.791625191843593
 20
42.59957825140577
 40
2.5
 41
0.6547619344966495
 50
0.0
 51
0.0
  7
STANDARD
  1
2
  0
TEXT
  8
PIC11
  6
CONTINUOUS
 62
     7
 10
-3.072875191843593
 20
42.59957825140577
 40
2.5
 41
0.6547619344966495
 50
0.0
 51
0.0
  7
STANDARD
  1
5
  0
ENDBLK
  8
PIC11
  0
BLOCK
  8
PIC11
  2
COMP10
 70
    64
 10
0.0
 20
0.0
  0
LINE
  8
PIC11
  6
CONTINUOUS
 62
     7
 10
16.66650027036667
 20
41.99958068132401
 11
76.48362156940402
 21
41.99958068132401
  0
INSERT
  8
PIC11
  6
CONTINUOUS
 62
     7
  2
MARK1_1
 10
16.66650027036667
 20
41.99958068132401
 41
2.5
 42
2.5
 50
0.0
  0
LINE
  8
PIC11
  6
CONTINUOUS
 62
     7
 10
133.3320021629334
 20
41.99958068132401
 11
76.48362156940402
 21
41.99958068132401
  0
INSERT
  8
PIC11
  6
CONTINUOUS
 62
     7
  2
MARK1_1
 10
133.3320021629334
 20
41.99958068132401
 41
2.5
 42
2.5
 50
180.0
  0
LINE
  8
PIC11
  6
CONTINUOUS
 62
     7
 10
16.66650027036667
 20
26.999730437994
 11
16.66650027036667
 21
42.99958086997049
  0
LINE
  8
PIC11
  6
CONTINUOUS
 62
     7
 10
133.3320021629334
 20
26.999730437994
 11
133.3320021629334
 21
42.99958086997049
  0
TEXT
  8
PIC11
  6
CONTINUOUS
 62
     7
 10
72.65549409885625
 20
42.59957825140577
 40
2.5
 41
0.6547619344966495
 50
0.0
 51
0.0
  7
STANDARD
  1
3
  0
TEXT
  8
PIC11
  6
CONTINUOUS
 62
     7
 10
74.37424409885625
 20
42.59957825140577
 40
2.5
 41
0.6547619344966495
 50
0.0
 51
0.0
  7
STANDARD
  1
5
  0
TEXT
  8
PIC11
  6
CONTINUOUS
 62
     7
 10
76.09299409885625
 20
42.59957825140577
 40
2.5
 41
0.6547619344966495
 50
0.0
 51
0.0
  7
STANDARD
  1
0
  0
TEXT
  8
PIC11
  6
CONTINUOUS
 62
     7
 10
77.81174409885624
 20
42.59957825140577
 40
2.5
 41
1.0
 50
0.0
 51
0.0
  7
STANDARD
  1
üª
  0
ENDBLK
  8
PIC11
  0
BLOCK
  8
PIC11
  2
COMP11
 70
    64
 10
0.0
 20
0.0
  0
LINE
  8
PIC11
  6
CONTINUOUS
 62
     7
 10
133.3320021629334
 20
41.99958068132401
 11
154.1651275008917
 21
41.99958068132401
  0
INSERT
  8
PIC11
  6
CONTINUOUS
 62
     7
  2
MARK1_1
 10
133.3320021629334
 20
41.99958068132401
 41
2.5
 42
2.5
 50
0.0
  0
LINE
  8
PIC11
  6
CONTINUOUS
 62
     7
 10
174.99825283885
 20
41.99958068132401
 11
154.1651275008917
 21
41.99958068132401
  0
INSERT
  8
PIC11
  6
CONTINUOUS
 62
     7
  2
MARK1_1
 10
174.99825283885
 20
41.99958068132401
 41
2.5
 42
2.5
 50
180.0
  0
LINE
  8
PIC11
  6
CONTINUOUS
 62
     7
 10
133.3320021629334
 20
26.999730437994
 11
133.3320021629334
 21
42.99958086997049
  0
LINE
  8
PIC11
  6
CONTINUOUS
 62
     7
 10
174.99825283885
 20
26.499735429883
 11
174.99825283885
 21
42.99958086997049
  0
TEXT
  8
PIC11
  6
CONTINUOUS
 62
     7
 10
151.8213703830979
 20
42.59957825140577
 40
2.5
 41
0.6547619344966495
 50
0.0
 51
0.0
  7
STANDARD
  1
1
  0
TEXT
  8
PIC11
  6
CONTINUOUS
 62
     7
 10
153.5401203830979
 20
42.59957825140577
 40
2.5
 41
0.6547619344966495
 50
0.0
 51
0.0
  7
STANDARD
  1
2
  0
TEXT
  8
PIC11
  6
CONTINUOUS
 62
     7
 10
155.2588703830979
 20
42.59957825140577
 40
2.5
 41
0.6547619344966495
 50
0.0
 51
0.0
  7
STANDARD
  1
5
  0
ENDBLK
  8
PIC11
  0
BLOCK
  8
PIC44
  2
COMP12
 70
    64
 10
0.0
 20
0.0
  0
LINE
  8
PIC44
  6
CONTINUOUS
 62
     7
 10
8.993227958679199
 20
4.372853755950928
 11
20.10672950744629
 21
9.776666641235352
  0
LINE
  8
PIC44
  6
CONTINUOUS
 62
     7
 10
8.993227958679199
 20
4.372853755950928
 11
0.0
 21
0.0
  0
INSERT
  8
PIC44
  6
CONTINUOUS
 62
     7
  2
MARK1_1
 10
8.993227958679199
 20
4.372853755950928
 41
2.5
 42
2.5
 50
206.0
  0
LINE
  8
PIC44
  6
CONTINUOUS
 62
     7
 10
-8.993227958679199
 20
-4.372853755950928
 11
0.0
 21
0.0
  0
INSERT
  8
PIC44
  6
CONTINUOUS
 62
     7
  2
MARK1_1
 10
-8.993227958679199
 20
-4.372853755950928
 41
2.5
 42
2.5
 50
26.0
  0
TEXT
  8
PIC44
  6
CONTINUOUS
 62
     7
 10
15.17970943450928
 20
8.044980049133301
 40
2.5
 41
0.6547619344966495
 50
26.0
 51
0.0
  7
STANDARD
  1
%%c
  0
TEXT
  8
PIC44
  6
CONTINUOUS
 62
     7
 10
16.72451177271727
 20
8.798430311836237
 40
2.5
 41
0.6547619344966495
 50
26.0
 51
0.0
  7
STANDARD
  1
4
  0
TEXT
  8
PIC44
  6
CONTINUOUS
 62
     7
 10
18.26931411092526
 20
9.551880574539172
 40
2.5
 41
0.6547619344966495
 50
26.0
 51
0.0
  7
STANDARD
  1
0
  0
ENDBLK
  8
PIC44
  0
BLOCK
  8
PIC44
  2
COMP13
 70
    64
 10
0.0
 20
0.0
  0
LINE
  8
PIC44
  6
CONTINUOUS
 62
     7
 10
11.83724594116211
 20
0.7902705073356628
 11
20.06665992736816
 21
4.33005952835083
  0
INSERT
  8
PIC44
  6
CONTINUOUS
 62
     7
  2
MARK1_1
 10
11.83724594116211
 20
0.7902705073356628
 41
2.5
 42
2.5
 50
23.0
  0
LINE
  8
PIC44
  6
CONTINUOUS
 62
     7
 10
11.83724594116211
 20
0.7902705073356628
 11
10.0
 21
0.0
  0
LINE
  8
PIC44
  6
CONTINUOUS
 62
     7
 10
8.162754058837891
 20
-0.7902705073356628
 11
10.0
 21
0.0
  0
LINE
  8
PIC44
  6
CONTINUOUS
 62
     7
 10
8.162754058837891
 20
-0.7902705073356628
 11
5.406885147094727
 21
-1.97567629814148
  0
INSERT
  8
PIC44
  6
CONTINUOUS
 62
     7
  2
MARK1_1
 10
8.162754058837891
 20
-0.7902705073356628
 41
2.5
 42
2.5
 50
203.0
  0
TEXT
  8
PIC44
  6
CONTINUOUS
 62
     7
 10
16.64295196533203
 20
3.518274068832398
 40
2.5
 41
0.6547619344966495
 50
23.0
 51
0.0
  7
STANDARD
  1
%%c
  0
TEXT
  8
PIC44
  6
CONTINUOUS
 62
     7
 10
18.225069738289
 20
4.189843063793957
 40
2.5
 41
0.6547619344966495
 50
23.0
 51
0.0
  7
STANDARD
  1
8
  0
ENDBLK
  8
PIC44
  0
ENDSEC
  0
SECTION
  2
ENTITIES
  0
LINE
  8
PIC11
  6
CENTER
 62
     7
 10
55.00029951333998
 20
131.6664503514767
 11
264.99820291996
 21
131.6664503514767
  0
LINE
  8
PIC11
  6
CENTER
 62
     7
 10
85.0
 20
105.00004991889
 11
85.0
 21
131.6664503514767
  0
LINE
  8
PIC11
  6
CENTER
 62
     7
 10
234.9985024333001
 20
105.00004991889
 11
234.9985024333
 21
131.6664503514767
  0
INSERT
  8
PIC11
  6
CONTINUOUS
 62
     7
  2
SUB1
 10
231.998532384634
 20
110.0
 41
1.0
 42
1.0
 50
0.0
  0
INSERT
  8
PIC11
  6
CONTINUOUS
 62
     7
  2
SUB2
 10
82.000029951334
 20
110.0
 41
1.0
 42
1.0
 50
0.0
  0
LINE
  8
PIC11
  6
CENTER
 62
     7
 10
82.000029951334
 20
92.52369252168833
 11
82.000029951334
 21
115.999940097332
  0
LINE
  8
PIC11
  6
CENTER
 62
     7
 10
231.998532384634
 20
92.52369252168833
 11
231.998532384634
 21
115.999940097332
  0
INSERT
  8
PIC11
  6
CONTINUOUS
 62
     7
  2
SUB3
 10
237.998472481966
 20
110.0
 41
1.0
 42
1.0
 50
0.0
  0
LINE
  8
PIC11
  6
CENTER
 62
     7
 10
237.998472481966
 20
92.52369252168833
 11
237.998472481966
 21
115.999940097332
  0
INSERT
  8
PIC11
  6
CONTINUOUS
 62
     7
  2
SUB4
 10
87.999970048666
 20
110.0
 41
1.0
 42
1.0
 50
0.0
  0
LINE
  8
PIC11
  6
CENTER
 62
     7
 10
87.999970048666
 20
92.52369252168833
 11
87.999970048666
 21
115.999940097332
  0
LINE
  8
PIC11
  6
PHANTOM
 62
     7
 10
57.76455358943516
 20
110.0
 11
262.2339488438649
 21
110.0
  0
INSERT
  8
PIC11
  6
CONTINUOUS
 62
     7
  2
COMP1
 10
85.0
 20
110.0
 41
1.0
 42
1.0
 50
0.0
  0
INSERT
  8
PIC11
  6
CONTINUOUS
 62
     7
  2
COMP2
 10
85.0
 20
110.0
 41
1.0
 42
1.0
 50
0.0
  0
INSERT
  8
PIC11
  6
CONTINUOUS
 62
     7
  2
COMP3
 10
85.0
 20
110.0
 41
1.0
 42
1.0
 50
0.0
  0
INSERT
  8
PIC11
  6
CONTINUOUS
 62
     7
  2
COMP4
 10
85.0
 20
110.0
 41
1.0
 42
1.0
 50
0.0
  0
INSERT
  8
PIC11
  6
CONTINUOUS
 62
     7
  2
COMP5
 10
85.0
 20
110.0
 41
1.0
 42
1.0
 50
0.0
  0
INSERT
  8
PIC11
  6
CONTINUOUS
 62
     7
  2
COMP6
 10
85.0
 20
110.0
 41
1.0
 42
1.0
 50
0.0
  0
INSERT
  8
PIC11
  6
CONTINUOUS
 62
     7
  2
COMP7
 10
85.0
 20
110.0
 41
1.0
 42
1.0
 50
0.0
  0
INSERT
  8
PIC11
  6
CONTINUOUS
 62
     7
  2
COMP8
 10
85.0
 20
110.0
 41
1.0
 42
1.0
 50
0.0
  0
TEXT
  8
PIC11
  6
CONTINUOUS
 62
     7
 10
63.50422258647268
 20
110.5999999542438
 40
3.5
 41
0.6547619344966495
 50
0.0
 51
0.0
  7
STANDARD
  1
W
  0
TEXT
  8
PIC11
  6
CONTINUOUS
 62
     7
 10
65.91047258647268
 20
110.5999999542438
 40
3.5
 41
0.6547619344966495
 50
0.0
 51
0.0
  7
STANDARD
  1
.
  0
TEXT
  8
PIC11
  6
CONTINUOUS
 62
     7
 10
68.31672258647268
 20
110.5999999542438
 40
3.5
 41
0.6547619344966495
 50
0.0
 51
0.0
  7
STANDARD
  1
L
  0
TEXT
  8
PIC11
  6
CONTINUOUS
 62
     7
 10
70.72297258647268
 20
110.5999999542438
 40
3.5
 41
0.6547619344966495
 50
0.0
 51
0.0
  7
STANDARD
  1
.
  0
INSERT
  8
PIC11
  6
CONTINUOUS
 62
     7
  2
COMP9
 10
85.0
 20
110.0
 41
1.0
 42
1.0
 50
0.0
  0
INSERT
  8
PIC11
  6
CONTINUOUS
 62
     7
  2
COMP10
 10
85.0
 20
110.0
 41
1.0
 42
1.0
 50
0.0
  0
INSERT
  8
PIC11
  6
CONTINUOUS
 62
     7
  2
COMP11
 10
85.0
 20
110.0
 41
1.0
 42
1.0
 50
0.0
  0
TEXT
  8
PIC11
  6
CONTINUOUS
 62
     7
 10
222.0781602370098
 20
119.4644536190147
 40
2.5
 41
0.6547619344966495
 50
0.0
 51
0.0
  7
STANDARD
  1
T
  0
TEXT
  8
PIC11
  6
CONTINUOUS
 62
     7
 10
223.7969102370098
 20
119.4644536190147
 40
2.5
 41
0.6547619344966495
 50
0.0
 51
0.0
  7
STANDARD
  1
O
  0
TEXT
  8
PIC11
  6
CONTINUOUS
 62
     7
 10
225.5156602370098
 20
119.4644536190147
 40
2.5
 41
0.6547619344966495
 50
0.0
 51
0.0
  7
STANDARD
  1
T
  0
TEXT
  8
PIC11
  6
CONTINUOUS
 62
     7
 10
227.2344102370098
 20
119.4644536190147
 40
2.5
 41
0.6547619344966495
 50
0.0
 51
0.0
  7
STANDARD
  1
O
  0
LINE
  8
PIC11
  6
CONTINUOUS
 62
     7
 10
233.498517408967
 20
116.1979291738966
 11
228.9844124935144
 21
118.8644535058268
  0
LINE
  8
PIC11
  6
CONTINUOUS
 62
     7
 10
228.9844124935144
 20
118.8644535058268
 11
221.5781652288988
 21
118.8644535058268
  0
INSERT
  8
PIC11
  6
CONTINUOUS
 62
     7
  2
MARK1_1
 10
233.498517408967
 20
116.1979291738966
 41
2.5
 42
2.5
 50
149.0
  0
TEXT
  8
PIC11
  6
CONTINUOUS
 62
     7
 10
95.74194673931345
 20
100.0206786525059
 40
2.5
 41
1.0
 50
0.0
 51
0.0
  7
STANDARD
  1
âË
  0
TEXT
  8
PIC11
  6
CONTINUOUS
 62
     7
 10
98.71069673931345
 20
100.0206786525059
 40
2.5
 41
0.6547619344966495
 50
0.0
 51
0.0
  7
STANDARD
  1
4
  0
TEXT
  8
PIC11
  6
CONTINUOUS
 62
     7
 10
100.4294467393135
 20
100.0206786525059
 40
2.5
 41
0.6547619344966495
 50
0.0
 51
0.0
  7
STANDARD
  1
.
  0
TEXT
  8
PIC11
  6
CONTINUOUS
 62
     7
 10
102.1481967393135
 20
100.0206786525059
 40
2.5
 41
0.6547619344966495
 50
0.0
 51
0.0
  7
STANDARD
  1
5
  0
TEXT
  8
PIC11
  6
CONTINUOUS
 62
     7
 10
103.8669467393135
 20
100.0206786525059
 40
2.5
 41
1.0
 50
0.0
 51
0.0
  7
STANDARD
  1
ü~
  0
TEXT
  8
PIC11
  6
CONTINUOUS
 62
     7
 10
106.8356967393135
 20
100.0206786525059
 40
2.5
 41
0.6547619344966495
 50
0.0
 51
0.0
  7
STANDARD
  1
4
  0
TEXT
  8
PIC11
  6
CONTINUOUS
 62
     7
 10
108.5544467393135
 20
100.0206786525059
 40
2.5
 41
0.6547619344966495
 50
0.0
 51
0.0
  7
STANDARD
  1
5
  0
LINE
  8
PIC11
  6
CONTINUOUS
 62
     7
 10
88.54996443043279
 20
104.5028205386849
 11
95.24194664499021
 21
99.42067853931803
  0
LINE
  8
PIC11
  6
CONTINUOUS
 62
     7
 10
95.24194664499021
 20
99.42067853931803
 11
110.3044450360421
 21
99.42067853931803
  0
INSERT
  8
PIC11
  6
CONTINUOUS
 62
     7
  2
MARK1_1
 10
88.54996443043279
 20
104.5028205386849
 41
2.5
 42
2.5
 50
323.0
  0
TEXT
  8
PIC11
  6
CONTINUOUS
 62
     7
 10
95.74194673931345
 20
95.94880971895873
 40
2.5
 41
0.6547619344966495
 50
0.0
 51
0.0
  7
STANDARD
  1
(
  0
TEXT
  8
PIC11
  6
CONTINUOUS
 62
     7
 10
97.46069673931345
 20
95.94880971895873
 40
2.5
 41
1.0
 50
0.0
 51
0.0
  7
STANDARD
  1
Å\
  0
TEXT
  8
PIC11
  6
CONTINUOUS
 62
     7
 10
100.4294467393135
 20
95.94880971895873
 40
2.5
 41
1.0
 50
0.0
 51
0.0
  7
STANDARD
  1
ÄÜ
  0
TEXT
  8
PIC11
  6
CONTINUOUS
 62
     7
 10
103.3981967393135
 20
95.94880971895873
 40
2.5
 41
1.0
 50
0.0
 51
0.0
  7
STANDARD
  1
îè
  0
TEXT
  8
PIC11
  6
CONTINUOUS
 62
     7
 10
106.3669467393135
 20
95.94880971895873
 40
2.5
 41
1.0
 50
0.0
 51
0.0
  7
STANDARD
  1
òt
  0
TEXT
  8
PIC11
  6
CONTINUOUS
 62
     7
 10
109.3356967393135
 20
95.94880971895873
 40
2.5
 41
1.0
 50
0.0
 51
0.0
  7
STANDARD
  1
â^
  0
TEXT
  8
PIC11
  6
CONTINUOUS
 62
     7
 10
112.3044467393135
 20
95.94880971895873
 40
2.5
 41
1.0
 50
0.0
 51
0.0
  7
STANDARD
  1
âb
  0
TEXT
  8
PIC11
  6
CONTINUOUS
 62
     7
 10
115.2731967393135
 20
95.94880971895873
 40
2.5
 41
1.0
 50
0.0
 51
0.0
  7
STANDARD
  1
âs
  0
TEXT
  8
PIC11
  6
CONTINUOUS
 62
     7
 10
118.2419467393135
 20
95.94880971895873
 40
2.5
 41
1.0
 50
0.0
 51
0.0
  7
STANDARD
  1
âô
  0
TEXT
  8
PIC11
  6
CONTINUOUS
 62
     7
 10
121.2106967393135
 20
95.94880971895873
 40
2.5
 41
1.0
 50
0.0
 51
0.0
  7
STANDARD
  1
é╦
  0
TEXT
  8
PIC11
  6
CONTINUOUS
 62
     7
 10
124.1794467393135
 20
95.94880971895873
 40
2.5
 41
1.0
 50
0.0
 51
0.0
  7
STANDARD
  1
éÂ
  0
TEXT
  8
PIC11
  6
CONTINUOUS
 62
     7
 10
127.1481967393135
 20
95.94880971895873
 40
2.5
 41
0.6547619344966495
 50
0.0
 51
0.0
  7
STANDARD
  1
)
  0
INSERT
  8
PIC11
  6
CONTINUOUS
 62
     7
  2
SUB5
 10
85.0
 20
110.0
 41
1.0
 42
1.0
 50
0.0
  0
LINE
  8
PIC13
  6
CENTER
 62
     7
 10
299.6667698323727
 20
131.6664503514767
 11
320.3332301676273
 21
131.6664503514767
  0
LINE
  8
PIC13
  6
CENTER
 62
     7
 10
310.0
 20
105.00004991889
 11
310.0
 21
141.999680519104
  0
LINE
  8
PIC13
  6
CENTER
 62
     7
 10
310.0
 20
96.77567268692398
 11
317.7209484421786
 21
113.3333000540733
  0
LINE
  8
PIC13
  6
CENTER
 62
     7
 10
310.0
 20
96.77567268692398
 11
302.2790515578215
 21
113.3333000540733
  0
INSERT
  8
PIC13
  6
CONTINUOUS
 62
     7
  2
SUB13
 10
303.3120052639513
 20
111.1181236827119
 41
1.0
 42
1.0
 50
0.0
  0
INSERT
  8
PIC13
  6
CONTINUOUS
 62
     7
  2
SUB14
 10
316.6879947360487
 20
111.1181236827119
 41
1.0
 42
1.0
 50
0.0
  0
LINE
  8
PIC13
  6
PHANTOM
 62
     7
 10
296.269284338369
 20
110.0
 11
324.8565853950267
 21
110.0
  0
INSERT
  8
PIC13
  6
CONTINUOUS
 62
     7
  2
SUB15
 10
310.0
 20
110.0
 41
1.0
 42
1.0
 50
0.0
  0
LINE
  8
PIC15
  6
CENTER
 62
     7
 10
55.00029951333998
 20
205.0
 11
264.99820291996
 21
205.0
  0
LINE
  8
PIC15
  6
CENTER
 62
     7
 10
85.0
 20
190.00014975667
 11
85.0
 21
219.99985024333
  0
LINE
  8
PIC15
  6
CENTER
 62
     7
 10
234.9985024333
 20
219.99985024333
 11
234.9985024333
 21
190.00014975667
  0
INSERT
  8
PIC15
  6
CONTINUOUS
 62
     7
  2
SUB19
 10
85.0
 20
205.0
 41
1.0
 42
1.0
 50
0.0
  0
TEXT
  8
PIC18
  6
CONTINUOUS
 62
     7
 10
213.0404869251578
 20
47.03597826351443
 40
3.5
 41
1.0
 50
0.0
 51
0.0
  7
STANDARD
  1
ü@
  0
TEXT
  8
PIC18
  6
CONTINUOUS
 62
     7
 10
217.1967369251578
 20
47.03597826351443
 40
3.5
 41
1.0
 50
0.0
 51
0.0
  7
STANDARD
  1
ü@
  0
TEXT
  8
PIC18
  6
CONTINUOUS
 62
     7
 10
221.3529869251578
 20
47.03597826351443
 40
3.5
 41
1.0
 50
0.0
 51
0.0
  7
STANDARD
  1
ü@
  0
TEXT
  8
PIC18
  6
CONTINUOUS
 62
     7
 10
225.5092369251578
 20
47.03597826351443
 40
3.5
 41
1.0
 50
0.0
 51
0.0
  7
STANDARD
  1
âX
  0
TEXT
  8
PIC18
  6
CONTINUOUS
 62
     7
 10
229.6654869251578
 20
47.03597826351443
 40
3.5
 41
1.0
 50
0.0
 51
0.0
  7
STANDARD
  1
âe
  0
TEXT
  8
PIC18
  6
CONTINUOUS
 62
     7
 10
233.8217369251578
 20
47.03597826351443
 40
3.5
 41
1.0
 50
0.0
 51
0.0
  7
STANDARD
  1
âô
  0
TEXT
  8
PIC18
  6
CONTINUOUS
 62
     7
 10
237.9779869251578
 20
47.03597826351443
 40
3.5
 41
1.0
 50
0.0
 51
0.0
  7
STANDARD
  1
âî
  0
TEXT
  8
PIC18
  6
CONTINUOUS
 62
     7
 10
242.1342369251578
 20
47.03597826351443
 40
3.5
 41
1.0
 50
0.0
 51
0.0
  7
STANDARD
  1
âX
  0
TEXT
  8
PIC18
  6
CONTINUOUS
 62
     7
 10
246.2904869251578
 20
47.03597826351443
 40
3.5
 41
1.0
 50
0.0
 51
0.0
  7
STANDARD
  1
üi
  0
TEXT
  8
PIC18
  6
CONTINUOUS
 62
     7
 10
250.4467369251578
 20
47.03597826351443
 40
3.5
 41
0.6547619344966495
 50
0.0
 51
0.0
  7
STANDARD
  1
S
  0
TEXT
  8
PIC18
  6
CONTINUOUS
 62
     7
 10
252.8529869251578
 20
47.03597826351443
 40
3.5
 41
0.6547619344966495
 50
0.0
 51
0.0
  7
STANDARD
  1
U
  0
TEXT
  8
PIC18
  6
CONTINUOUS
 62
     7
 10
255.2592369251578
 20
47.03597826351443
 40
3.5
 41
0.6547619344966495
 50
0.0
 51
0.0
  7
STANDARD
  1
S
  0
TEXT
  8
PIC18
  6
CONTINUOUS
 62
     7
 10
257.6654869251578
 20
47.03597826351443
 40
3.5
 41
0.6547619344966495
 50
0.0
 51
0.0
  7
STANDARD
  1
3
  0
TEXT
  8
PIC18
  6
CONTINUOUS
 62
     7
 10
260.0717369251578
 20
47.03597826351443
 40
3.5
 41
0.6547619344966495
 50
0.0
 51
0.0
  7
STANDARD
  1
0
  0
TEXT
  8
PIC18
  6
CONTINUOUS
 62
     7
 10
262.4779869251578
 20
47.03597826351443
 40
3.5
 41
0.6547619344966495
 50
0.0
 51
0.0
  7
STANDARD
  1
4
  0
TEXT
  8
PIC18
  6
CONTINUOUS
 62
     7
 10
264.8842369251578
 20
47.03597826351443
 40
3.5
 41
1.0
 50
0.0
 51
0.0
  7
STANDARD
  1
üE
  0
TEXT
  8
PIC18
  6
CONTINUOUS
 62
     7
 10
269.0404869251578
 20
47.03597826351443
 40
3.5
 41
1.0
 50
0.0
 51
0.0
  7
STANDARD
  1
âV
  0
TEXT
  8
PIC18
  6
CONTINUOUS
 62
     7
 10
273.1967369251578
 20
47.03597826351443
 40
3.5
 41
1.0
 50
0.0
 51
0.0
  7
STANDARD
  1
âç
  0
TEXT
  8
PIC18
  6
CONTINUOUS
 62
     7
 10
277.3529869251578
 20
47.03597826351443
 40
3.5
 41
1.0
 50
0.0
 51
0.0
  7
STANDARD
  1
âb
  0
TEXT
  8
PIC18
  6
CONTINUOUS
 62
     7
 10
281.5092369251578
 20
47.03597826351443
 40
3.5
 41
1.0
 50
0.0
 51
0.0
  7
STANDARD
  1
âg
  0
TEXT
  8
PIC18
  6
CONTINUOUS
 62
     7
 10
285.6654869251578
 20
47.03597826351443
 40
3.5
 41
1.0
 50
0.0
 51
0.0
  7
STANDARD
  1
âu
  0
TEXT
  8
PIC18
  6
CONTINUOUS
 62
     7
 10
289.8217369251578
 20
47.03597826351443
 40
3.5
 41
1.0
 50
0.0
 51
0.0
  7
STANDARD
  1
âë
  0
TEXT
  8
PIC18
  6
CONTINUOUS
 62
     7
 10
293.9779869251578
 20
47.03597826351443
 40
3.5
 41
1.0
 50
0.0
 51
0.0
  7
STANDARD
  1
âX
  0
TEXT
  8
PIC18
  6
CONTINUOUS
 62
     7
 10
298.1342369251578
 20
47.03597826351443
 40
3.5
 41
1.0
 50
0.0
 51
0.0
  7
STANDARD
  1
âg
  0
TEXT
  8
PIC18
  6
CONTINUOUS
 62
     7
 10
302.2904869251578
 20
47.03597826351443
 40
3.5
 41
1.0
 50
0.0
 51
0.0
  7
STANDARD
  1
Äd
  0
TEXT
  8
PIC18
  6
CONTINUOUS
 62
     7
 10
306.4467369251578
 20
47.03597826351443
 40
3.5
 41
1.0
 50
0.0
 51
0.0
  7
STANDARD
  1
ÅÒ
  0
TEXT
  8
PIC18
  6
CONTINUOUS
 62
     7
 10
310.6029869251578
 20
47.03597826351443
 40
3.5
 41
1.0
 50
0.0
 51
0.0
  7
STANDARD
  1
é░
  0
TEXT
  8
PIC18
  6
CONTINUOUS
 62
     7
 10
314.7592369251578
 20
47.03597826351443
 40
3.5
 41
1.0
 50
0.0
 51
0.0
  7
STANDARD
  1
üj
  0
TEXT
  8
PIC18
  6
CONTINUOUS
 62
     7
 10
318.9154869251578
 20
47.03597826351443
 40
3.5
 41
1.0
 50
0.0
 51
0.0
  7
STANDARD
  1
üi
  0
TEXT
  8
PIC18
  6
CONTINUOUS
 62
     7
 10
323.0717369251578
 20
47.03597826351443
 40
3.5
 41
1.0
 50
0.0
 51
0.0
  7
STANDARD
  1
üª
  0
TEXT
  8
PIC18
  6
CONTINUOUS
 62
     7
 10
327.2279869251578
 20
47.03597826351443
 40
3.5
 41
1.0
 50
0.0
 51
0.0
  7
STANDARD
  1
òö
  0
TEXT
  8
PIC18
  6
CONTINUOUS
 62
     7
 10
331.3842369251578
 20
47.03597826351443
 40
3.5
 41
1.0
 50
0.0
 51
0.0
  7
STANDARD
  1
üj
  0
TEXT
  8
PIC18
  6
CONTINUOUS
 62
     7
 10
213.0404869251578
 20
53.03597820390979
 40
3.5
 41
1.0
 50
0.0
 51
0.0
  7
STANDARD
  1
ìÌ
  0
TEXT
  8
PIC18
  6
CONTINUOUS
 62
     7
 10
217.1967369251578
 20
53.03597820390979
 40
3.5
 41
1.0
 50
0.0
 51
0.0
  7
STANDARD
  1
Ä┐
  0
TEXT
  8
PIC18
  6
CONTINUOUS
 62
     7
 10
221.3529869251578
 20
53.03597820390979
 40
3.5
 41
1.0
 50
0.0
 51
0.0
  7
STANDARD
  1
üF
  0
TEXT
  8
PIC18
  6
CONTINUOUS
 62
     7
 10
225.5092369251578
 20
53.03597820390979
 40
3.5
 41
1.0
 50
0.0
 51
0.0
  7
STANDARD
  1
âX
  0
TEXT
  8
PIC18
  6
CONTINUOUS
 62
     7
 10
229.6654869251578
 20
53.03597820390979
 40
3.5
 41
1.0
 50
0.0
 51
0.0
  7
STANDARD
  1
âe
  0
TEXT
  8
PIC18
  6
CONTINUOUS
 62
     7
 10
233.8217369251578
 20
53.03597820390979
 40
3.5
 41
1.0
 50
0.0
 51
0.0
  7
STANDARD
  1
âô
  0
TEXT
  8
PIC18
  6
CONTINUOUS
 62
     7
 10
237.9779869251578
 20
53.03597820390979
 40
3.5
 41
1.0
 50
0.0
 51
0.0
  7
STANDARD
  1
âî
  0
TEXT
  8
PIC18
  6
CONTINUOUS
 62
     7
 10
242.1342369251578
 20
53.03597820390979
 40
3.5
 41
1.0
 50
0.0
 51
0.0
  7
STANDARD
  1
âX
  0
TEXT
  8
PIC18
  6
CONTINUOUS
 62
     7
 10
246.2904869251578
 20
53.03597820390979
 40
3.5
 41
1.0
 50
0.0
 51
0.0
  7
STANDARD
  1
üi
  0
TEXT
  8
PIC18
  6
CONTINUOUS
 62
     7
 10
250.4467369251578
 20
53.03597820390979
 40
3.5
 41
0.6547619344966495
 50
0.0
 51
0.0
  7
STANDARD
  1
S
  0
TEXT
  8
PIC18
  6
CONTINUOUS
 62
     7
 10
252.8529869251578
 20
53.03597820390979
 40
3.5
 41
0.6547619344966495
 50
0.0
 51
0.0
  7
STANDARD
  1
U
  0
TEXT
  8
PIC18
  6
CONTINUOUS
 62
     7
 10
255.2592369251578
 20
53.03597820390979
 40
3.5
 41
0.6547619344966495
 50
0.0
 51
0.0
  7
STANDARD
  1
S
  0
TEXT
  8
PIC18
  6
CONTINUOUS
 62
     7
 10
257.6654869251578
 20
53.03597820390979
 40
3.5
 41
0.6547619344966495
 50
0.0
 51
0.0
  7
STANDARD
  1
3
  0
TEXT
  8
PIC18
  6
CONTINUOUS
 62
     7
 10
260.0717369251578
 20
53.03597820390979
 40
3.5
 41
0.6547619344966495
 50
0.0
 51
0.0
  7
STANDARD
  1
0
  0
TEXT
  8
PIC18
  6
CONTINUOUS
 62
     7
 10
262.4779869251578
 20
53.03597820390979
 40
3.5
 41
0.6547619344966495
 50
0.0
 51
0.0
  7
STANDARD
  1
4
  0
TEXT
  8
PIC18
  6
CONTINUOUS
 62
     7
 10
264.8842369251578
 20
53.03597820390979
 40
3.5
 41
1.0
 50
0.0
 51
0.0
  7
STANDARD
  1
üE
  0
TEXT
  8
PIC18
  6
CONTINUOUS
 62
     7
 10
269.0404869251578
 20
53.03597820390979
 40
3.5
 41
1.0
 50
0.0
 51
0.0
  7
STANDARD
  1
ï¥
  0
TEXT
  8
PIC18
  6
CONTINUOUS
 62
     7
 10
273.1967369251578
 20
53.03597820390979
 40
3.5
 41
1.0
 50
0.0
 51
0.0
  7
STANDARD
  1
û╩
  0
TEXT
  8
PIC18
  6
CONTINUOUS
 62
     7
 10
277.3529869251578
 20
53.03597820390979
 40
3.5
 41
1.0
 50
0.0
 51
0.0
  7
STANDARD
  1
Äd
  0
TEXT
  8
PIC18
  6
CONTINUOUS
 62
     7
 10
281.5092369251578
 20
53.03597820390979
 40
3.5
 41
1.0
 50
0.0
 51
0.0
  7
STANDARD
  1
ÅÒ
  0
TEXT
  8
PIC18
  6
CONTINUOUS
 62
     7
 10
285.6654869251578
 20
53.03597820390979
 40
3.5
 41
1.0
 50
0.0
 51
0.0
  7
STANDARD
  1
é░
  0
TEXT
  8
PIC18
  6
CONTINUOUS
 62
     7
 10
289.8217369251578
 20
53.03597820390979
 40
3.5
 41
1.0
 50
0.0
 51
0.0
  7
STANDARD
  1
üj
  0
TEXT
  8
PIC19
  6
CONTINUOUS
 62
     7
 10
50.5
 20
29.93499994277954
 40
3.5
 41
1.0
 50
0.0
 51
0.0
  7
STANDARD
  1
ÄÞ
  0
TEXT
  8
PIC19
  6
CONTINUOUS
 62
     7
 10
54.65625
 20
29.93499994277954
 40
3.5
 41
1.0
 50
0.0
 51
0.0
  7
STANDARD
  1
éÀ
  0
TEXT
  8
PIC19
  6
CONTINUOUS
 62
     7
 10
58.8125
 20
29.93499994277954
 40
3.5
 41
1.0
 50
0.0
 51
0.0
  7
STANDARD
  1
éÞ
  0
TEXT
  8
PIC19
  6
CONTINUOUS
 62
     7
 10
62.96875
 20
29.93499994277954
 40
3.5
 41
1.0
 50
0.0
 51
0.0
  7
STANDARD
  1
é­
  0
TEXT
  8
PIC19
  6
CONTINUOUS
 62
     7
 10
67.125
 20
29.93499994277954
 40
3.5
 41
1.0
 50
0.0
 51
0.0
  7
STANDARD
  1
Äµ
  0
TEXT
  8
PIC19
  6
CONTINUOUS
 62
     7
 10
71.28125
 20
29.93499994277954
 40
3.5
 41
1.0
 50
0.0
 51
0.0
  7
STANDARD
  1
éÞ
  0
TEXT
  8
PIC19
  6
CONTINUOUS
 62
     7
 10
75.4375
 20
29.93499994277954
 40
3.5
 41
1.0
 50
0.0
 51
0.0
  7
STANDARD
  1
òt
  0
TEXT
  8
PIC19
  6
CONTINUOUS
 62
     7
 10
79.59375
 20
29.93499994277954
 40
3.5
 41
1.0
 50
0.0
 51
0.0
  7
STANDARD
  1
é»
  0
TEXT
  8
PIC19
  6
CONTINUOUS
 62
     7
 10
83.75
 20
29.93499994277954
 40
3.5
 41
1.0
 50
0.0
 51
0.0
  7
STANDARD
  1
éÚ
  0
TEXT
  8
PIC19
  6
CONTINUOUS
 62
     7
 10
87.90625
 20
29.93499994277954
 40
3.5
 41
1.0
 50
0.0
 51
0.0
  7
STANDARD
  1
ì█
  0
TEXT
  8
PIC19
  6
CONTINUOUS
 62
     7
 10
92.0625
 20
29.93499994277954
 40
3.5
 41
1.0
 50
0.0
 51
0.0
  7
STANDARD
  1
é═
  0
TEXT
  8
PIC19
  6
CONTINUOUS
 62
     7
 10
96.21875
 20
29.93499994277954
 40
3.5
 41
1.0
 50
0.0
 51
0.0
  7
STANDARD
  1
üA
  0
TEXT
  8
PIC19
  6
CONTINUOUS
 62
     7
 10
100.375
 20
29.93499994277954
 40
3.5
 41
1.0
 50
0.0
 51
0.0
  7
STANDARD
  1
ô»
  0
TEXT
  8
PIC19
  6
CONTINUOUS
 62
     7
 10
104.53125
 20
29.93499994277954
 40
3.5
 41
1.0
 50
0.0
 51
0.0
  7
STANDARD
  1
ì½
  0
TEXT
  8
PIC19
  6
CONTINUOUS
 62
     7
 10
108.6875
 20
29.93499994277954
 40
3.5
 41
1.0
 50
0.0
 51
0.0
  7
STANDARD
  1
é╠
  0
TEXT
  8
PIC19
  6
CONTINUOUS
 62
     7
 10
112.84375
 20
29.93499994277954
 40
3.5
 41
1.0
 50
0.0
 51
0.0
  7
STANDARD
  1
â^
  0
TEXT
  8
PIC19
  6
CONTINUOUS
 62
     7
 10
117.0
 20
29.93499994277954
 40
3.5
 41
1.0
 50
0.0
 51
0.0
  7
STANDARD
  1
âb
  0
TEXT
  8
PIC19
  6
CONTINUOUS
 62
     7
 10
121.15625
 20
29.93499994277954
 40
3.5
 41
1.0
 50
0.0
 51
0.0
  7
STANDARD
  1
âs
  0
TEXT
  8
PIC19
  6
CONTINUOUS
 62
     7
 10
125.3125
 20
29.93499994277954
 40
3.5
 41
1.0
 50
0.0
 51
0.0
  7
STANDARD
  1
âô
  0
TEXT
  8
PIC19
  6
CONTINUOUS
 62
     7
 10
129.46875
 20
29.93499994277954
 40
3.5
 41
1.0
 50
0.0
 51
0.0
  7
STANDARD
  1
é╦
  0
TEXT
  8
PIC19
  6
CONTINUOUS
 62
     7
 10
133.625
 20
29.93499994277954
 40
3.5
 41
1.0
 50
0.0
 51
0.0
  7
STANDARD
  1
éÂ
  0
TEXT
  8
PIC19
  6
CONTINUOUS
 62
     7
 10
137.78125
 20
29.93499994277954
 40
3.5
 41
1.0
 50
0.0
 51
0.0
  7
STANDARD
  1
üi
  0
TEXT
  8
PIC19
  6
CONTINUOUS
 62
     7
 10
141.9375
 20
29.93499994277954
 40
3.5
 41
1.0
 50
0.0
 51
0.0
  7
STANDARD
  1
âË
  0
TEXT
  8
PIC19
  6
CONTINUOUS
 62
     7
 10
146.09375
 20
29.93499994277954
 40
3.5
 41
0.6547619344966495
 50
0.0
 51
0.0
  7
STANDARD
  1
4
  0
TEXT
  8
PIC19
  6
CONTINUOUS
 62
     7
 10
148.5
 20
29.93499994277954
 40
3.5
 41
0.6547619344966495
 50
0.0
 51
0.0
  7
STANDARD
  1
.
  0
TEXT
  8
PIC19
  6
CONTINUOUS
 62
     7
 10
150.90625
 20
29.93499994277954
 40
3.5
 41
0.6547619344966495
 50
0.0
 51
0.0
  7
STANDARD
  1
5
  0
TEXT
  8
PIC19
  6
CONTINUOUS
 62
     7
 10
153.3125
 20
29.93499994277954
 40
3.5
 41
1.0
 50
0.0
 51
0.0
  7
STANDARD
  1
ü~
  0
TEXT
  8
PIC19
  6
CONTINUOUS
 62
     7
 10
157.46875
 20
29.93499994277954
 40
3.5
 41
0.6547619344966495
 50
0.0
 51
0.0
  7
STANDARD
  1
4
  0
TEXT
  8
PIC19
  6
CONTINUOUS
 62
     7
 10
159.875
 20
29.93499994277954
 40
3.5
 41
0.6547619344966495
 50
0.0
 51
0.0
  7
STANDARD
  1
5
  0
TEXT
  8
PIC19
  6
CONTINUOUS
 62
     7
 10
162.28125
 20
29.93499994277954
 40
3.5
 41
1.0
 50
0.0
 51
0.0
  7
STANDARD
  1
üj
  0
TEXT
  8
PIC19
  6
CONTINUOUS
 62
     7
 10
166.4375
 20
29.93499994277954
 40
3.5
 41
1.0
 50
0.0
 51
0.0
  7
STANDARD
  1
é­
  0
TEXT
  8
PIC19
  6
CONTINUOUS
 62
     7
 10
170.59375
 20
29.93499994277954
 40
3.5
 41
1.0
 50
0.0
 51
0.0
  7
STANDARD
  1
Äg
  0
TEXT
  8
PIC19
  6
CONTINUOUS
 62
     7
 10
174.75
 20
29.93499994277954
 40
3.5
 41
1.0
 50
0.0
 51
0.0
  7
STANDARD
  1
ùp
  0
TEXT
  8
PIC19
  6
CONTINUOUS
 62
     7
 10
178.90625
 20
29.93499994277954
 40
3.5
 41
1.0
 50
0.0
 51
0.0
  7
STANDARD
  1
éÀ
  0
TEXT
  8
PIC19
  6
CONTINUOUS
 62
     7
 10
183.0625
 20
29.93499994277954
 40
3.5
 41
1.0
 50
0.0
 51
0.0
  7
STANDARD
  1
éÚ
  0
TEXT
  8
PIC19
  6
CONTINUOUS
 62
     7
 10
187.21875
 20
29.93499994277954
 40
3.5
 41
1.0
 50
0.0
 51
0.0
  7
STANDARD
  1
é®
  0
TEXT
  8
PIC19
  6
CONTINUOUS
 62
     7
 10
191.375
 20
29.93499994277954
 40
3.5
 41
1.0
 50
0.0
 51
0.0
  7
STANDARD
  1
üA
  0
TEXT
  8
PIC19
  6
CONTINUOUS
 62
     7
 10
50.5
 20
25.55999994277954
 40
3.5
 41
1.0
 50
0.0
 51
0.0
  7
STANDARD
  1
ûö
  0
TEXT
  8
PIC19
  6
CONTINUOUS
 62
     7
 10
54.65625
 20
25.55999994277954
 40
3.5
 41
1.0
 50
0.0
 51
0.0
  7
STANDARD
  1
é═
  0
TEXT
  8
PIC19
  6
CONTINUOUS
 62
     7
 10
58.8125
 20
25.55999994277954
 40
3.5
 41
1.0
 50
0.0
 51
0.0
  7
STANDARD
  1
üA
  0
TEXT
  8
PIC19
  6
CONTINUOUS
 62
     7
 10
62.96875
 20
25.55999994277954
 40
3.5
 41
1.0
 50
0.0
 51
0.0
  7
STANDARD
  1
Ä{
  0
TEXT
  8
PIC19
  6
CONTINUOUS
 62
     7
 10
67.125
 20
25.55999994277954
 40
3.5
 41
1.0
 50
0.0
 51
0.0
  7
STANDARD
  1
ìH
  0
TEXT
  8
PIC19
  6
CONTINUOUS
 62
     7
 10
71.28125
 20
25.55999994277954
 40
3.5
 41
1.0
 50
0.0
 51
0.0
  7
STANDARD
  1
ò¹
  0
TEXT
  8
PIC19
  6
CONTINUOUS
 62
     7
 10
75.4375
 20
25.55999994277954
 40
3.5
 41
1.0
 50
0.0
 51
0.0
  7
STANDARD
  1
û@
  0
TEXT
  8
PIC19
  6
CONTINUOUS
 62
     7
 10
79.59375
 20
25.55999994277954
 40
3.5
 41
1.0
 50
0.0
 51
0.0
  7
STANDARD
  1
é╔
  0
TEXT
  8
PIC19
  6
CONTINUOUS
 62
     7
 10
83.75
 20
25.55999994277954
 40
3.5
 41
1.0
 50
0.0
 51
0.0
  7
STANDARD
  1
éá
  0
TEXT
  8
PIC19
  6
CONTINUOUS
 62
     7
 10
87.90625
 20
25.55999994277954
 40
3.5
 41
1.0
 50
0.0
 51
0.0
  7
STANDARD
  1
é┴
  0
TEXT
  8
PIC19
  6
CONTINUOUS
 62
     7
 10
92.0625
 20
25.55999994277954
 40
3.5
 41
1.0
 50
0.0
 51
0.0
  7
STANDARD
  1
é¢
  0
TEXT
  8
PIC19
  6
CONTINUOUS
 62
     7
 10
96.21875
 20
25.55999994277954
 40
3.5
 41
1.0
 50
0.0
 51
0.0
  7
STANDARD
  1
ôû
  0
TEXT
  8
PIC19
  6
CONTINUOUS
 62
     7
 10
100.375
 20
25.55999994277954
 40
3.5
 41
1.0
 50
0.0
 51
0.0
  7
STANDARD
  1
Äð
  0
TEXT
  8
PIC19
  6
CONTINUOUS
 62
     7
 10
104.53125
 20
25.55999994277954
 40
3.5
 41
1.0
 50
0.0
 51
0.0
  7
STANDARD
  1
Äw
  0
TEXT
  8
PIC19
  6
CONTINUOUS
 62
     7
 10
108.6875
 20
25.55999994277954
 40
3.5
 41
1.0
 50
0.0
 51
0.0
  7
STANDARD
  1
ÆÞ
  0
TEXT
  8
PIC19
  6
CONTINUOUS
 62
     7
 10
112.84375
 20
25.55999994277954
 40
3.5
 41
1.0
 50
0.0
 51
0.0
  7
STANDARD
  1
é╠
  0
TEXT
  8
PIC19
  6
CONTINUOUS
 62
     7
 10
117.0
 20
25.55999994277954
 40
3.5
 41
1.0
 50
0.0
 51
0.0
  7
STANDARD
  1
î┼
  0
TEXT
  8
PIC19
  6
CONTINUOUS
 62
     7
 10
121.15625
 20
25.55999994277954
 40
3.5
 41
1.0
 50
0.0
 51
0.0
  7
STANDARD
  1
ÆÞ
  0
TEXT
  8
PIC19
  6
CONTINUOUS
 62
     7
 10
125.3125
 20
25.55999994277954
 40
3.5
 41
1.0
 50
0.0
 51
0.0
  7
STANDARD
  1
ïÓ
  0
TEXT
  8
PIC19
  6
CONTINUOUS
 62
     7
 10
129.46875
 20
25.55999994277954
 40
3.5
 41
1.0
 50
0.0
 51
0.0
  7
STANDARD
  1
ï´
  0
TEXT
  8
PIC19
  6
CONTINUOUS
 62
     7
 10
133.625
 20
25.55999994277954
 40
3.5
 41
1.0
 50
0.0
 51
0.0
  7
STANDARD
  1
é­
  0
TEXT
  8
PIC19
  6
CONTINUOUS
 62
     7
 10
137.78125
 20
25.55999994277954
 40
3.5
 41
1.0
 50
0.0
 51
0.0
  7
STANDARD
  1
òK
  0
TEXT
  8
PIC19
  6
CONTINUOUS
 62
     7
 10
141.9375
 20
25.55999994277954
 40
3.5
 41
1.0
 50
0.0
 51
0.0
  7
STANDARD
  1
é©
  0
TEXT
  8
PIC19
  6
CONTINUOUS
 62
     7
 10
146.09375
 20
25.55999994277954
 40
3.5
 41
1.0
 50
0.0
 51
0.0
  7
STANDARD
  1
Äg
  0
TEXT
  8
PIC19
  6
CONTINUOUS
 62
     7
 10
150.25
 20
25.55999994277954
 40
3.5
 41
1.0
 50
0.0
 51
0.0
  7
STANDARD
  1
ùp
  0
TEXT
  8
PIC19
  6
CONTINUOUS
 62
     7
 10
154.40625
 20
25.55999994277954
 40
3.5
 41
1.0
 50
0.0
 51
0.0
  7
STANDARD
  1
éÁ
  0
TEXT
  8
PIC19
  6
CONTINUOUS
 62
     7
 10
158.5625
 20
25.55999994277954
 40
3.5
 41
1.0
 50
0.0
 51
0.0
  7
STANDARD
  1
é─
  0
TEXT
  8
PIC19
  6
CONTINUOUS
 62
     7
 10
162.71875
 20
25.55999994277954
 40
3.5
 41
1.0
 50
0.0
 51
0.0
  7
STANDARD
  1
é¡
  0
TEXT
  8
PIC19
  6
CONTINUOUS
 62
     7
 10
166.875
 20
25.55999994277954
 40
3.5
 41
1.0
 50
0.0
 51
0.0
  7
STANDARD
  1
é¥
  0
TEXT
  8
PIC19
  6
CONTINUOUS
 62
     7
 10
171.03125
 20
25.55999994277954
 40
3.5
 41
1.0
 50
0.0
 51
0.0
  7
STANDARD
  1
é│
  0
TEXT
  8
PIC19
  6
CONTINUOUS
 62
     7
 10
175.1875
 20
25.55999994277954
 40
3.5
 41
1.0
 50
0.0
 51
0.0
  7
STANDARD
  1
éó
  0
TEXT
  8
PIC43
  6
CONTINUOUS
 62
     7
 10
229.6795311091073
 20
21.3978558524865
 40
3.0
 41
1.0
 50
0.0
 51
0.0
  7
STANDARD
  1
Äl
  0
TEXT
  8
PIC43
  6
CONTINUOUS
 62
     7
 10
229.6795322733142
 20
17.83535585248669
 40
3.0
 41
1.0
 50
0.0
 51
0.0
  7
STANDARD
  1
î│
  0
TEXT
  8
PIC43
  6
CONTINUOUS
 62
     7
 10
239.6795311091073
 20
21.3978558524865
 40
3.0
 41
1.0
 50
0.0
 51
0.0
  7
STANDARD
  1
ê¯
  0
TEXT
  8
PIC43
  6
CONTINUOUS
 62
     7
 10
239.6795322733142
 20
17.83535585248669
 40
3.0
 41
1.0
 50
0.0
 51
0.0
  7
STANDARD
  1
òx
  0
LINE
  8
PIC44
  6
CENTER
 62
     7
 10
335.0
 20
205.25
 11
335.0
 21
244.75
  0
LINE
  8
PIC44
  6
CENTER
 62
     7
 10
353.75
 20
225.0
 11
316.25
 21
225.0
  0
CIRCLE
  8
PIC44
  6
CENTER
 62
     7
 10
335.0
 20
225.0
 40
10.0
  0
LINE
  8
PIC44
  6
CENTER
 62
     7
 10
330.5
 20
208.1919662066023
 11
330.5
 21
241.8080337933977
  0
LINE
  8
PIC44
  6
CENTER
 62
     7
 10
339.5
 20
208.1919662066023
 11
339.5
 21
241.8080337933977
  0
TEXT
  8
PIC44
  6
CONTINUOUS
 62
     7
 10
320.1224946975708
 20
198.1056652069092
 40
3.5
 41
1.0
 50
0.0
 51
0.0
  7
STANDARD
  1
Äµ
  0
TEXT
  8
PIC44
  6
CONTINUOUS
 62
     7
 10
324.2787446975708
 20
198.1056652069092
 40
3.5
 41
1.0
 50
0.0
 51
0.0
  7
STANDARD
  1
òt
  0
TEXT
  8
PIC44
  6
CONTINUOUS
 62
     7
 10
328.4349946975708
 20
198.1056652069092
 40
3.5
 41
1.0
 50
0.0
 51
0.0
  7
STANDARD
  1
ì└
  0
TEXT
  8
PIC44
  6
CONTINUOUS
 62
     7
 10
332.5912446975708
 20
198.1056652069092
 40
3.5
 41
1.0
 50
0.0
 51
0.0
  7
STANDARD
  1
Å┌
  0
TEXT
  8
PIC44
  6
CONTINUOUS
 62
     7
 10
336.7474946975708
 20
198.1056652069092
 40
3.5
 41
1.0
 50
0.0
 51
0.0
  7
STANDARD
  1
ìÎ
  0
TEXT
  8
PIC44
  6
CONTINUOUS
 62
     7
 10
340.9037446975708
 20
198.1056652069092
 40
3.5
 41
0.6547619344966495
 50
0.0
 51
0.0
  7
STANDARD
  1
(
  0
TEXT
  8
PIC44
  6
CONTINUOUS
 62
     7
 10
343.3099946975708
 20
198.1056652069092
 40
3.5
 41
0.6547619344966495
 50
0.0
 51
0.0
  7
STANDARD
  1
1
  0
TEXT
  8
PIC44
  6
CONTINUOUS
 62
     7
 10
345.7162446975708
 20
198.1056652069092
 40
3.5
 41
0.6547619344966495
 50
0.0
 51
0.0
  7
STANDARD
  1
:
  0
TEXT
  8
PIC44
  6
CONTINUOUS
 62
     7
 10
348.1224946975708
 20
198.1056652069092
 40
3.5
 41
0.6547619344966495
 50
0.0
 51
0.0
  7
STANDARD
  1
2
  0
TEXT
  8
PIC44
  6
CONTINUOUS
 62
     7
 10
350.5287446975708
 20
198.1056652069092
 40
3.5
 41
0.6547619344966495
 50
0.0
 51
0.0
  7
STANDARD
  1
)
  0
LINE
  8
PIC44
  6
CONTINUOUS
 62
     7
 10
319.6224946975708
 20
197.5056648254395
 11
352.7787437438965
 21
197.5056648254395
  0
INSERT
  8
PIC44
  6
CONTINUOUS
 62
     7
  2
COMP12
 10
335.0
 20
225.0
 41
1.0
 42
1.0
 50
0.0
  0
INSERT
  8
PIC44
  6
CONTINUOUS
 62
     7
  2
COMP13
 10
335.0
 20
225.0
 41
1.0
 42
1.0
 50
0.0
  0
INSERT
  8
PIC44
  6
CONTINUOUS
 62
     7
  2
SUB25
 10
335.0
 20
225.0
 41
1.0
 42
1.0
 50
0.0
  0
LINE
  8
DRAW1
  6
CONTINUOUS
 10
0.0
 20
277.0
 11
385.0
 21
277.0
  0
LINE
  8
DRAW1
  6
CONTINUOUS
 10
385.0
 20
277.0
 11
385.0
 21
0.0
  0
LINE
  8
DRAW1
  6
CONTINUOUS
 10
0.0
 20
0.0
 11
385.0
 21
0.0
  0
LINE
  8
DRAW1
  6
CONTINUOUS
 10
0.0
 20
277.0
 11
0.0
 21
0.0
  0
LINE
  8
DRAW1
  6
CONTINUOUS
 10
385.0
 20
138.5
 11
395.0
 21
138.5
  0
LINE
  8
DRAW1
  6
CONTINUOUS
 10
-25.0
 20
138.5
 11
0.0
 21
138.5
  0
LINE
  8
DRAW1
  6
CONTINUOUS
 10
185.0
 20
-10.0
 11
185.0
 21
0.0
  0
LINE
  8
DRAW1
  6
CONTINUOUS
 10
185.0
 20
277.0
 11
185.0
 21
287.0
  0
TEXT
  8
DRAW1
  6
CONTINUOUS
 10
380.5
 20
-4.400000095367432
 40
2.5
 41
0.6547619344966495
 50
0.0
 51
0.0
  7
STANDARD
  1
A
  0
TEXT
  8
DRAW1
  6
CONTINUOUS
 10
382.21875
 20
-4.400000095367432
 40
2.5
 41
0.6547619344966495
 50
0.0
 51
0.0
  7
STANDARD
  1
3
  0
TEXT
  8
DRAW1
  6
CONTINUOUS
 10
301.5
 20
16.60000038146973
 40
2.8
 41
0.9078947368421053
 50
0.0
 51
0.0
  7
STANDARD
  1
É}
  0
TEXT
  8
DRAW1
  6
CONTINUOUS
 10
304.51875
 20
16.60000038146973
 40
2.8
 41
0.9078947368421053
 50
0.0
 51
0.0
  7
STANDARD
  1
öÈ
  0
TEXT
  8
DRAW1
  6
CONTINUOUS
 10
261.5
 20
25.60000038146973
 40
2.8
 41
0.9078947368421053
 50
0.0
 51
0.0
  7
STANDARD
  1
ô·
  0
TEXT
  8
DRAW1
  6
CONTINUOUS
 10
264.51875
 20
25.60000038146973
 40
2.8
 41
0.9078947368421053
 50
0.0
 51
0.0
  7
STANDARD
  1
òt
  0
TEXT
  8
DRAW1
  6
CONTINUOUS
 10
301.5
 20
36.59999847412109
 40
2.8
 41
0.9078947368421053
 50
0.0
 51
0.0
  7
STANDARD
  1
û╝
  0
TEXT
  8
DRAW1
  6
CONTINUOUS
 10
304.51875
 20
36.59999847412109
 40
2.8
 41
0.9078947368421053
 50
0.0
 51
0.0
  7
STANDARD
  1
Å╠
  0
TEXT
  8
DRAW1
  6
CONTINUOUS
 10
281.5
 20
36.59999847412109
 40
2.8
 41
0.9078947368421053
 50
0.0
 51
0.0
  7
STANDARD
  1
ÆP
  0
TEXT
  8
DRAW1
  6
CONTINUOUS
 10
284.51875
 20
36.59999847412109
 40
2.8
 41
0.9078947368421053
 50
0.0
 51
0.0
  7
STANDARD
  1
ê╩
  0
TEXT
  8
DRAW1
  6
CONTINUOUS
 10
281.5
 20
25.60000038146973
 40
2.8
 41
0.9078947368421053
 50
0.0
 51
0.0
  7
STANDARD
  1
Ä┌
  0
TEXT
  8
DRAW1
  6
CONTINUOUS
 10
284.51875
 20
25.60000038146973
 40
2.8
 41
0.9078947368421053
 50
0.0
 51
0.0
  7
STANDARD
  1
ôx
  0
TEXT
  8
DRAW1
  6
CONTINUOUS
 10
210.5
 20
10.60000038146973
 40
2.8
 41
0.9078947368421053
 50
0.0
 51
0.0
  7
STANDARD
  1
ö§
  0
TEXT
  8
DRAW1
  6
CONTINUOUS
 10
213.51875
 20
10.60000038146973
 40
2.8
 41
0.9078947368421053
 50
0.0
 51
0.0
  7
STANDARD
  1
ìl
  0
TEXT
  8
DRAW1
  6
CONTINUOUS
 10
210.5
 20
25.60000038146973
 40
2.8
 41
0.9078947368421053
 50
0.0
 51
0.0
  7
STANDARD
  1
É╗
  0
TEXT
  8
DRAW1
  6
CONTINUOUS
 10
213.51875
 20
25.60000038146973
 40
2.8
 41
0.9078947368421053
 50
0.0
 51
0.0
  7
STANDARD
  1
É}
  0
TEXT
  8
DRAW1
  6
CONTINUOUS
 10
222.5
 20
25.60000038146973
 40
2.8
 41
0.9078947368421053
 50
0.0
 51
0.0
  7
STANDARD
  1
îƒ
  0
TEXT
  8
DRAW1
  6
CONTINUOUS
 10
225.51875
 20
25.60000038146973
 40
2.8
 41
0.9078947368421053
 50
0.0
 51
0.0
  7
STANDARD
  1
É}
  0
TEXT
  8
DRAW1
  6
CONTINUOUS
 10
288.5
 20
30.59999847412109
 40
3.5
 41
0.9078947368421053
 50
0.0
 51
0.0
  7
STANDARD
  1
éì
  0
TEXT
  8
DRAW1
  6
CONTINUOUS
 10
292.2734375
 20
30.59999847412109
 40
3.5
 41
0.9078947368421053
 50
0.0
 51
0.0
  7
STANDARD
  1
éì
  0
LINE
  8
DRAW1
  6
CONTINUOUS
 10
210.0
 20
0.0
 11
385.0
 21
0.0
  0
LINE
  8
DRAW1
  6
CONTINUOUS
 10
385.0
 20
0.0
 11
385.0
 21
40.0
  0
LINE
  8
DRAW1
  6
CONTINUOUS
 10
301.0
 20
20.0
 11
385.0
 21
20.0
  0
LINE
  8
DRAW1
  6
CONTINUOUS
 10
210.0
 20
40.0
 11
385.0
 21
40.0
  0
LINE
  8
DRAW1
  6
CONTINUOUS
 10
301.0
 20
20.0
 11
385.0
 21
20.0
  0
LINE
  8
DRAW1
  6
CONTINUOUS
 10
210.0
 20
0.0
 11
210.0
 21
40.0
  0
LINE
  8
DRAW1
  6
CONTINUOUS
 10
301.0
 20
0.0
 11
301.0
 21
40.0
  0
LINE
  8
DRAW1
  6
CONTINUOUS
 10
210.0
 20
14.0
 11
301.0
 21
14.0
  0
LINE
  8
DRAW1
  6
CONTINUOUS
 10
210.0
 20
29.0
 11
301.0
 21
29.0
  0
LINE
  8
DRAW1
  6
CONTINUOUS
 10
281.0
 20
14.0
 11
281.0
 21
40.0
  0
LINE
  8
DRAW1
  6
CONTINUOUS
 10
261.0
 20
14.0
 11
261.0
 21
40.0
  0
LINE
  8
DRAW1
  6
CONTINUOUS
 10
222.0
 20
14.0
 11
222.0
 21
29.0
  0
LINE
  8
DRAW1
  6
CONTINUOUS
 10
275.75
 20
36.0
 11
275.75
 21
32.99998474121094
  0
LINE
  8
DRAW1
  6
CONTINUOUS
 10
271.75
 20
35.25
 11
271.75
 21
33.74998474121094
  0
CIRCLE
  8
DRAW1
  6
CONTINUOUS
 10
267.75
 20
34.5
 40
1.5
  0
LINE
  8
DRAW1
  6
CENTER
 10
265.4500122070313
 20
34.5
 11
276.5499877929688
 21
34.5
  0
CIRCLE
  8
DRAW1
  6
CONTINUOUS
 10
267.75
 20
34.5
 40
0.75
  0
LINE
  8
DRAW1
  6
CONTINUOUS
 10
275.75
 20
32.99996948242188
 11
271.75
 21
33.74998474121094
  0
LINE
  8
DRAW1
  6
CONTINUOUS
 10
271.7500305175781
 20
35.24997711181641
 11
275.7500305175781
 21
35.99999237060547
  0
LINE
  8
DRAW1
  6
CENTER
 10
267.75
 20
36.79998779296875
 11
267.75
 21
32.19999694824219
  0
LINE
  8
DRAW1
  6
CONTINUOUS
 10
240.3459361102637
 20
31.87242567274315
 11
240.3459361102637
 21
32.51390245225694
  0
LINE
  8
DRAW1
  6
CONTINUOUS
 10
240.3459361102637
 20
32.51390245225694
 11
239.6021399948124
 21
32.51390245225694
  0
LINE
  8
DRAW1
  6
CONTINUOUS
 10
239.2665876944652
 20
32.81775987413194
 11
239.2665876944652
 21
36.46611599392374
  0
LINE
  8
DRAW1
  6
CONTINUOUS
 10
239.2665876944652
 20
36.46611599392374
 11
239.6693193567916
 21
36.46611599392374
  0
LINE
  8
DRAW1
  6
CONTINUOUS
 10
240.7321313142567
 20
35.19418674045134
 11
240.7321313142567
 21
35.10530327690985
  0
LINE
  8
DRAW1
  6
CONTINUOUS
 10
240.7321313142567
 20
35.10530327690985
 11
241.4528452899512
 21
35.10530327690985
  0
LINE
  8
DRAW1
  6
CONTINUOUS
 10
241.4528452899512
 20
35.10530327690985
 11
241.4528452899512
 21
37.12757432725685
  0
LINE
  8
DRAW1
  6
CONTINUOUS
 10
241.4528452899512
 20
37.12757432725685
 11
235.7505232413402
 21
37.12757432725685
  0
LINE
  8
DRAW1
  6
CONTINUOUS
 10
235.7505232413402
 20
37.12757432725685
 11
235.7505232413402
 21
35.10530327690985
  0
LINE
  8
DRAW1
  6
CONTINUOUS
 10
235.7505232413402
 20
35.10530327690985
 11
236.4722707456805
 21
35.10530327690985
  0
LINE
  8
DRAW1
  6
CONTINUOUS
 10
236.4722707456805
 20
35.10530327690985
 11
236.4722707456805
 21
35.19418674045134
  0
LINE
  8
DRAW1
  6
CONTINUOUS
 10
237.5343936840485
 20
36.46611599392374
 11
237.9374698559232
 21
36.46611599392374
  0
LINE
  8
DRAW1
  6
CONTINUOUS
 10
237.9374698559232
 20
36.46611599392374
 11
237.9374698559232
 21
32.81775987413194
  0
LINE
  8
DRAW1
  6
CONTINUOUS
 10
237.6005395173818
 20
32.51390245225694
 11
236.8584659496735
 21
32.51390245225694
  0
LINE
  8
DRAW1
  6
CONTINUOUS
 10
236.8584659496735
 20
32.51390245225694
 11
236.8584659496735
 21
31.87242567274315
  0
LINE
  8
DRAW1
  6
CONTINUOUS
 10
236.8584659496735
 20
31.87242567274315
 11
240.3459361102637
 21
31.87242567274315
  0
LINE
  8
DRAW1
  6
CONTINUOUS
 10
227.6028724166874
 20
31.87242567274315
 11
227.6028724166874
 21
32.51390245225694
  0
LINE
  8
DRAW1
  6
CONTINUOUS
 10
227.6028724166874
 20
32.51390245225694
 11
226.8597653203332
 21
32.51390245225694
  0
LINE
  8
DRAW1
  6
CONTINUOUS
 10
226.5224904722428
 20
32.81775987413194
 11
226.5224904722428
 21
36.46611599392374
  0
LINE
  8
DRAW1
  6
CONTINUOUS
 10
226.5224904722428
 20
36.46611599392374
 11
226.9252221345694
 21
36.46611599392374
  0
LINE
  8
DRAW1
  6
CONTINUOUS
 10
227.9907901684235
 20
35.19418674045134
 11
227.9907901684235
 21
35.10530327690985
  0
LINE
  8
DRAW1
  6
CONTINUOUS
 10
227.9907901684235
 20
35.10530327690985
 11
228.7087480677291
 21
35.10530327690985
  0
LINE
  8
DRAW1
  6
CONTINUOUS
 10
228.7087480677291
 20
35.10530327690985
 11
228.7087480677291
 21
37.12757432725685
  0
LINE
  8
DRAW1
  6
CONTINUOUS
 10
228.7087480677291
 20
37.12757432725685
 11
222.9995358281457
 21
37.12757432725685
  0
LINE
  8
DRAW1
  6
CONTINUOUS
 10
222.9995358281457
 20
37.12757432725685
 11
222.9995358281457
 21
35.10530327690985
  0
LINE
  8
DRAW1
  6
CONTINUOUS
 10
222.9995358281457
 20
35.10530327690985
 11
223.7202498038402
 21
35.10530327690985
  0
LINE
  8
DRAW1
  6
CONTINUOUS
 10
223.7202498038402
 20
35.10530327690985
 11
223.7202498038402
 21
35.19418674045134
  0
LINE
  8
DRAW1
  6
CONTINUOUS
 10
224.7840952899513
 20
36.46611599392374
 11
225.1940616527985
 21
36.46611599392374
  0
LINE
  8
DRAW1
  6
CONTINUOUS
 10
225.1940616527985
 20
36.46611599392374
 11
225.1940616527985
 21
32.81775987413194
  0
LINE
  8
DRAW1
  6
CONTINUOUS
 10
224.8512746519305
 20
32.51390245225694
 11
224.1067895173818
 21
32.51390245225694
  0
LINE
  8
DRAW1
  6
CONTINUOUS
 10
224.1067895173818
 20
32.51390245225694
 11
224.1067895173818
 21
31.87242567274315
  0
LINE
  8
DRAW1
  6
CONTINUOUS
 10
224.1067895173818
 20
31.87242567274315
 11
227.6028724166874
 21
31.87242567274315
  0
ARC
  8
DRAW1
  6
CONTINUOUS
 10
245.0348515769845
 20
33.73611029923465
 40
1.363367873579606
 50
294.3922886929546
 51
322.3803332383912
  0
ARC
  8
DRAW1
  6
CONTINUOUS
 10
244.9530681616331
 20
33.91272726206226
 40
1.557995705838819
 50
269.8224019237831
 51
294.4490611350781
  0
ARC
  8
DRAW1
  6
CONTINUOUS
 10
244.9425429511977
 20
33.92981336312754
 40
1.575084621420466
 50
245.6857204735017
 51
270.207197915772
  0
ARC
  8
DRAW1
  6
CONTINUOUS
 10
244.8512707955762
 20
33.73128711675822
 40
1.356587741859434
 50
217.5831782458487
 51
245.7463231991976
  0
ARC
  8
DRAW1
  6
CONTINUOUS
 10
245.4465393682935
 20
34.01514474400996
 40
2.006207525464112
 50
190.6716224603131
 51
213.6356392418107
  0
ARC
  8
DRAW1
  6
CONTINUOUS
 10
247.511944069011
 20
34.53425788172213
 40
4.133991307060695
 50
180.1357931255338
 51
192.441277193055
  0
ARC
  8
DRAW1
  6
CONTINUOUS
 10
247.4798984739939
 20
34.51314847548908
 40
4.101949698411087
 50
167.5097759338783
 51
179.8419986398425
  0
ARC
  8
DRAW1
  6
CONTINUOUS
 10
245.4377955971156
 20
35.02949811138207
 40
1.997482251555922
 50
146.2878320365442
 51
169.3021689955143
  0
ARC
  8
DRAW1
  6
CONTINUOUS
 10
244.8424609342796
 20
35.3311078241653
 40
1.337228802889581
 50
114.2133783849535
 51
142.8780796928172
  0
ARC
  8
DRAW1
  6
CONTINUOUS
 10
244.9406681447275
 20
35.1124269152261
 40
1.576949439446592
 50
89.72492859122833
 51
114.2089623100611
  0
ARC
  8
DRAW1
  6
CONTINUOUS
 10
244.9549407664305
 20
35.12956833383889
 40
1.559804245317001
 50
65.65665971131429
 51
90.24617841067872
  0
ARC
  8
DRAW1
  6
CONTINUOUS
 10
245.0437976600799
 20
35.32647132083507
 40
1.343780441231574
 50
37.15842540434303
 51
65.64781879528185
  0
ARC
  8
DRAW1
  6
CONTINUOUS
 10
244.462682642711
 20
35.02676495113839
 40
1.991100611906442
 50
10.81258463650578
 51
33.92951993252592
  0
ARC
  8
DRAW1
  6
CONTINUOUS
 10
242.4501894617911
 20
34.51280943663987
 40
4.066273589436656
 50
0.1641648561099025
 51
12.60649785389813
  0
ARC
  8
DRAW1
  6
CONTINUOUS
 10
242.4184459063409
 20
34.53459585635541
 40
4.098012988306478
 50
347.4428805753819
 51
359.8582893249013
  0
ARC
  8
DRAW1
  6
CONTINUOUS
 10
244.4539966915173
 20
34.01787668951083
 40
1.999767013285054
 50
326.1473070503462
 51
349.2139323475356
  0
ARC
  8
DRAW1
  6
CONTINUOUS
 10
245.4778166543939
 20
34.73617168362155
 40
2.566138681106807
 50
54.86444289335651
 51
79.15837844669258
  0
ARC
  8
DRAW1
  6
CONTINUOUS
 10
244.9194770464293
 20
32.57623312109281
 40
4.794651215633065
 50
77.46003830313157
 51
89.65629566307096
  0
ARC
  8
DRAW1
  6
CONTINUOUS
 10
244.9768581976838
 20
32.55236217969521
 40
4.818520880908022
 50
90.34030669138268
 51
102.5086689978304
  0
ARC
  8
DRAW1
  6
CONTINUOUS
 10
244.4217575497611
 20
34.70539335942713
 40
2.597468462592279
 50
100.8407124203757
 51
124.9374096386165
  0
ARC
  8
DRAW1
  6
CONTINUOUS
 10
244.5362345649024
 20
34.7736724666877
 40
2.610441252738984
 50
127.8567059152033
 51
152.8122112667684
  0
ARC
  8
DRAW1
  6
CONTINUOUS
 10
244.994795322568
 20
34.58162321304663
 40
3.106327224564185
 50
153.5258575275526
 51
181.0544238574771
  0
ARC
  8
DRAW1
  6
CONTINUOUS
 10
244.9983959605815
 20
34.46662029239373
 40
3.10993976827625
 50
178.9343290681411
 51
206.4589745875224
  0
ARC
  8
DRAW1
  6
CONTINUOUS
 10
244.5812765261621
 20
34.2998546118552
 40
2.662459412556328
 50
207.2456121394147
 51
231.7848496380304
  0
ARC
  8
DRAW1
  6
CONTINUOUS
 10
244.4331781562074
 20
34.35179769647461
 40
2.615872774575791
 50
235.0390534013196
 51
258.9817370144951
  0
ARC
  8
DRAW1
  6
CONTINUOUS
 10
244.9804463680837
 20
36.43397412330943
 40
4.766295942075781
 50
257.3078042273202
 51
269.6128301004333
  0
ARC
  8
DRAW1
  6
CONTINUOUS
 10
244.9158947496026
 20
36.410391153075
 40
4.742714443045261
 50
270.3907461454712
 51
282.7239211024522
  0
ARC
  8
DRAW1
  6
CONTINUOUS
 10
245.466524875221
 20
34.32073733054084
 40
2.584241805815437
 50
281.019709776542
 51
305.1592338545795
  0
ARC
  8
DRAW1
  6
CONTINUOUS
 10
245.340658921646
 20
34.27813532160094
 40
2.624987432010459
 50
307.9418538497385
 51
332.8663918513815
  0
ARC
  8
DRAW1
  6
CONTINUOUS
 10
244.8811270044662
 20
34.46473079752578
 40
3.119349374384237
 50
333.6657421686855
 51
1.097168082429655
  0
ARC
  8
DRAW1
  6
CONTINUOUS
 10
244.8847487073409
 20
34.58351429858236
 40
3.11571546451335
 50
358.9139719172381
 51
26.34938099202999
  0
ARC
  8
DRAW1
  6
CONTINUOUS
 10
245.3844933691656
 20
34.7946111631655
 40
2.574405121653127
 50
27.07591663396939
 51
52.41661932356804
  0
ARC
  8
DRAW1
  6
CONTINUOUS
 10
232.2766390235551
 20
33.75024427018086
 40
1.379366828979895
 50
294.4361955991882
 51
322.150918324662
  0
ARC
  8
DRAW1
  6
CONTINUOUS
 10
232.2027656002029
 20
33.91115752563935
 40
1.556425963587695
 50
269.8223815844425
 51
294.4615772812973
  0
ARC
  8
DRAW1
  6
CONTINUOUS
 10
232.1938347636615
 20
33.90298628167692
 40
1.548252685178512
 50
245.4731206327116
 51
270.1519455115686
  0
ARC
  8
DRAW1
  6
CONTINUOUS
 10
232.1217166176949
 20
33.74769564161356
 40
1.377037229732712
 50
217.7901298623845
 51
245.5208207971371
  0
ARC
  8
DRAW1
  6
CONTINUOUS
 10
232.694261415524
 20
34.01445179063227
 40
1.997870731352783
 50
190.6964540651099
 51
213.7709394871559
  0
ARC
  8
DRAW1
  6
CONTINUOUS
 10
234.7572410012242
 20
34.53387648851954
 40
4.123384456925064
 50
180.1308428376495
 51
192.4683677521077
  0
ARC
  8
DRAW1
  6
CONTINUOUS
 10
234.7252683080407
 20
34.51353025278301
 40
4.091415611297124
 50
167.4825728571886
 51
179.8469382270321
  0
ARC
  8
DRAW1
  6
CONTINUOUS
 10
232.6855707856643
 20
35.03018535431316
 40
1.989199132751164
 50
146.1523338677573
 51
169.2772418129758
  0
ARC
  8
DRAW1
  6
CONTINUOUS
 10
232.1125558820781
 20
35.31525918278341
 40
1.35701979617734
 50
114.4389981701242
 51
142.6710424629553
  0
ARC
  8
DRAW1
  6
CONTINUOUS
 10
232.1919615019197
 20
35.13934659960329
 40
1.550023114005117
 50
89.77898354625815
 51
114.4209508640838
  0
ARC
  8
DRAW1
  6
CONTINUOUS
 10
232.2046373750949
 20
35.13114123160459
 40
1.558231339973117
 50
65.64418887431923
 51
90.24623779769016
  0
ARC
  8
DRAW1
  6
CONTINUOUS
 10
232.285817068616
 20
35.31277250387846
 40
1.359286557128723
 50
37.38793444836792
 51
65.60413545453658
  0
ARC
  8
DRAW1
  6
CONTINUOUS
 10
231.7018682598974
 20
35.0276083449976
 40
2.000512203809442
 50
10.73652099838028
 51
33.7193325289707
  0
ARC
  8
DRAW1
  6
CONTINUOUS
 10
229.6728942089373
 20
34.51269189967955
 40
4.091892787679377
 50
0.1647828136360616
 51
12.52796863123305
  0
ARC
  8
DRAW1
  6
CONTINUOUS
 10
229.6409459682472
 20
34.53471363551527
 40
4.1238368526138
 50
347.5211097564034
 51
359.8575403270947
  0
ARC
  8
DRAW1
  6
CONTINUOUS
 10
231.6931134840622
 20
34.01703822765266
 40
2.009248362199161
 50
326.3571975129898
 51
349.2897701993297
  0
ARC
  8
DRAW1
  6
CONTINUOUS
 10
232.727363250047
 20
34.73551024257093
 40
2.566768909650977
 50
54.87010785843688
 51
79.16341872438525
  0
ARC
  8
DRAW1
  6
CONTINUOUS
 10
232.1688291689267
 20
32.57549048353327
 40
4.795395949586617
 50
77.46090061371615
 51
89.65217156709311
  0
ARC
  8
DRAW1
  6
CONTINUOUS
 10
232.2290947812738
 20
32.58409344753169
 40
4.786806002882212
 50
90.37290272991885
 51
102.5511072588565
  0
ARC
  8
DRAW1
  6
CONTINUOUS
 10
231.6774735350296
 20
34.70977880513065
 40
2.593174871725576
 50
100.8604868624229
 51
124.9707938443877
  0
ARC
  8
DRAW1
  6
CONTINUOUS
 10
231.7919347293038
 20
34.77389187592009
 40
2.609509458301947
 50
127.8382303785073
 51
152.8071180189097
  0
ARC
  8
DRAW1
  6
CONTINUOUS
 10
232.2508360565357
 20
34.58166450790226
 40
3.105776869500583
 50
153.5216521188365
 51
181.0553726684389
  0
ARC
  8
DRAW1
  6
CONTINUOUS
 10
232.2544361007357
 20
34.4665790155032
 40
3.109388829275667
 50
178.9333794961289
 51
206.4631775978917
  0
ARC
  8
DRAW1
  6
CONTINUOUS
 10
231.8369319828597
 20
34.2996150351092
 40
2.661478872515867
 50
207.2506808020167
 51
231.8033261644983
  0
ARC
  8
DRAW1
  6
CONTINUOUS
 10
231.6888942579085
 20
34.34739910107676
 40
2.611569097098246
 50
235.0056982293866
 51
258.9617523855819
  0
ARC
  8
DRAW1
  6
CONTINUOUS
 10
232.2327005297691
 20
36.40277572863393
 40
4.735116313411784
 50
257.2648828254976
 51
269.5793952353252
  0
ARC
  8
DRAW1
  6
CONTINUOUS
 10
232.1652428712131
 20
36.41114743994855
 40
4.743473136801361
 50
270.3949551982206
 51
282.7230313020899
  0
ARC
  8
DRAW1
  6
CONTINUOUS
 10
232.7160733570142
 20
34.32139800414156
 40
2.584870215912015
 50
281.014623613975
 51
305.153578403613
  0
ARC
  8
DRAW1
  6
CONTINUOUS
 10
232.5520798236495
 20
34.32269605724376
 40
2.683668464414169
 50
308.0014399705578
 51
332.438589189375
  0
ARC
  8
DRAW1
  6
CONTINUOUS
 10
232.1813058365484
 20
34.46788977477142
 40
3.079844282115788
 50
333.2355931336015
 51
1.052464778823762
  0
ARC
  8
DRAW1
  6
CONTINUOUS
 10
232.1848592201065
 20
34.5803521079413
 40
3.076279096967431
 50
358.9589540458454
 51
26.779712023121
  0
ARC
  8
DRAW1
  6
CONTINUOUS
 10
232.597391563718
 20
34.751287432751
 40
2.631186212618155
 50
27.50419499700053
 51
52.35691523127719
  0
ARC
  8
DRAW1
  6
CONTINUOUS
 10
239.5860858260595
 20
32.88799553098623
 40
0.3744374018275857
 50
234.0291054510976
 51
272.4573350979681
  0
ARC
  8
DRAW1
  6
CONTINUOUS
 10
239.5509379096797
 20
32.801677350709
 40
0.2848046566547116
 50
176.7628649691474
 51
229.5473065387491
  0
ARC
  8
DRAW1
  6
CONTINUOUS
 10
239.7149902672399
 20
35.50285337442968
 40
0.964344702985259
 50
38.11548054235674
 51
92.71451649139185
  0
ARC
  8
DRAW1
  6
CONTINUOUS
 10
239.251504261921
 20
35.25977345594116
 40
1.482078974062237
 50
357.4636509508471
 51
34.44660812042596
  0
ARC
  8
DRAW1
  6
CONTINUOUS
 10
237.9532038548531
 20
35.25962771351944
 40
1.482378290046122
 50
145.5544962193741
 51
182.5301979481274
  0
ARC
  8
DRAW1
  6
CONTINUOUS
 10
237.489013308136
 20
35.50372746649065
 40
0.9634578642850853
 50
87.30028008128981
 51
141.9092087406784
  0
ARC
  8
DRAW1
  6
CONTINUOUS
 10
237.6533820918421
 20
32.80149682496808
 40
0.2845528851882119
 50
310.4492617052528
 51
3.276410674199767
  0
ARC
  8
DRAW1
  6
CONTINUOUS
 10
237.6172188919676
 20
32.89045328341207
 40
0.3769200578108384
 50
267.4637329010913
 51
305.8546616295363
  0
ARC
  8
DRAW1
  6
CONTINUOUS
 10
226.8432600788881
 20
32.89116912561435
 40
0.3776275490761387
 50
234.1822459214437
 51
272.5050662626731
  0
ARC
  8
DRAW1
  6
CONTINUOUS
 10
226.8063192926018
 20
32.80162469155285
 40
0.2842870791702027
 50
176.7463349847809
 51
229.6534042895246
  0
ARC
  8
DRAW1
  6
CONTINUOUS
 10
226.970552858961
 20
35.49926500838494
 40
0.9679130657301224
 50
38.21982045229567
 51
92.68434189002161
  0
ARC
  8
DRAW1
  6
CONTINUOUS
 10
226.5141984989284
 20
35.25907107646607
 40
1.478016554535989
 50
357.4839295861859
 51
34.58776272525608
  0
ARC
  8
DRAW1
  6
CONTINUOUS
 10
225.1993583587192
 20
35.25950987346702
 40
1.480550312830705
 50
145.5004290088097
 51
182.5287591776179
  0
ARC
  8
DRAW1
  6
CONTINUOUS
 10
224.7385518016845
 20
35.50150896319026
 40
0.9656815898954617
 50
87.29681293921368
 51
141.8453534216444
  0
ARC
  8
DRAW1
  6
CONTINUOUS
 10
224.9131186503856
 20
32.80271414095672
 40
0.2813455965383724
 50
309.2871182195732
 51
3.065512473843665
  0
ARC
  8
DRAW1
  6
CONTINUOUS
 10
224.8668327552327
 20
32.90218022480353
 40
0.3885893503842364
 50
267.7054132274927
 51
305.2795049955051
  0
LINE
  8
DRAW1
  6
CONTINUOUS
 10
242.2787840288384
 20
36.08442391634564
 11
243.1823263452505
 21
36.98796623275784
  0
LINE
  8
DRAW1
  6
CONTINUOUS
 10
242.0514488191915
 20
35.57424599422423
 11
243.6683506514152
 21
37.19114782644785
  0
LINE
  8
DRAW1
  6
CONTINUOUS
 10
241.9483895554624
 20
35.18834401802035
 11
244.0385567370477
 21
37.27851119960575
  0
LINE
  8
DRAW1
  6
CONTINUOUS
 10
241.9008259234525
 20
34.85793767353574
 11
244.376069784424
 21
37.33318153450715
  0
LINE
  8
DRAW1
  6
CONTINUOUS
 10
241.8886314884182
 20
34.56290052602684
 11
244.6877520220227
 21
37.36202105963135
  0
LINE
  8
DRAW1
  6
CONTINUOUS
 10
241.8938545219855
 20
34.28528084711975
 11
244.9790108934515
 21
37.37043721858565
  0
LINE
  8
DRAW1
  6
CONTINUOUS
 10
244.5249626594122
 20
36.63354627207174
 11
245.2508121941639
 21
37.35939580682334
  0
LINE
  8
DRAW1
  6
CONTINUOUS
 10
241.9195663635378
 20
34.02814997619724
 11
243.538034087316
 21
35.64661769997564
  0
LINE
  8
DRAW1
  6
CONTINUOUS
 10
244.8616266625755
 20
36.68736756276034
 11
245.5087525589125
 21
37.33449345909743
  0
LINE
  8
DRAW1
  6
CONTINUOUS
 10
241.9632880428695
 20
33.78902894305433
 11
243.4494948612291
 21
35.27523576141415
  0
LINE
  8
DRAW1
  6
CONTINUOUS
 10
245.1358896141222
 20
36.67878780183254
 11
245.75466223393
 21
37.29756042164023
  0
LINE
  8
DRAW1
  6
CONTINUOUS
 10
242.0220875006499
 20
33.56498568836015
 11
243.4005995642696
 21
34.94349775197985
  0
LINE
  8
DRAW1
  6
CONTINUOUS
 10
245.3723641780737
 20
36.63241965330924
 11
245.9904334825702
 21
37.25048895780545
  0
LINE
  8
DRAW1
  6
CONTINUOUS
 10
242.0942129046474
 20
33.35426837988275
 11
243.3800226716647
 21
34.64007814690034
  0
LINE
  8
DRAW1
  6
CONTINUOUS
 10
245.5809631785625
 20
36.55817594132334
 11
246.2164233039442
 21
37.19363606670514
  0
LINE
  8
DRAW1
  6
CONTINUOUS
 10
242.1783484548377
 20
33.15556121759873
 11
243.3818223219853
 21
34.35903508474634
  0
LINE
  8
DRAW1
  6
CONTINUOUS
 10
245.7655435263872
 20
36.45991357667363
 11
246.4261777792
 21
37.12054782948634
  0
LINE
  8
DRAW1
  6
CONTINUOUS
 10
242.2750622413112
 20
32.96943229159764
 11
243.4013324459533
 21
34.09570249623964
  0
LINE
  8
DRAW1
  6
CONTINUOUS
 10
245.927365941004
 20
36.33889327881575
 11
246.6216468267919
 21
37.03317416460364
  0
LINE
  8
DRAW1
  6
CONTINUOUS
 10
242.384385064727
 20
32.79591240253883
 11
243.4356128685807
 21
33.84714020639244
  0
LINE
  8
DRAW1
  6
CONTINUOUS
 10
246.067830743251
 20
36.19651536858832
 11
246.8042013761545
 21
36.93288600149175
  0
LINE
  8
DRAW1
  6
CONTINUOUS
 10
242.5048349715257
 20
32.63351959686294
 11
243.4816658194827
 21
33.61035044482004
  0
LINE
  8
DRAW1
  6
CONTINUOUS
 10
246.1831144461327
 20
36.02895635899525
 11
246.9738959872018
 21
36.81973790006434
  0
LINE
  8
DRAW1
  6
CONTINUOUS
 10
242.6360941215577
 20
32.48193603442023
 11
243.5412373031666
 21
33.38707921602914
  0
LINE
  8
DRAW1
  6
CONTINUOUS
 10
246.2791315148932
 20
35.84213071528093
 11
247.1267593797035
 21
36.68975858009115
  0
LINE
  8
DRAW1
  6
CONTINUOUS
 10
242.7780974113968
 20
32.34109661178475
 11
243.620780643923
 21
33.18377984431093
  0
LINE
  8
DRAW1
  6
CONTINUOUS
 10
246.3576648062437
 20
35.63782129415675
 11
247.2686810925362
 21
36.54883758044944
  0
LINE
  8
DRAW1
  6
CONTINUOUS
 10
242.9306694531631
 20
32.21082594107644
 11
243.7175539947625
 21
32.99771048267574
  0
LINE
  8
DRAW1
  6
CONTINUOUS
 10
246.4158774026707
 20
35.41319117810933
 11
247.3994657636989
 21
36.39677953913734
  0
LINE
  8
DRAW1
  6
CONTINUOUS
 10
243.1024795920392
 20
32.09979336747783
 11
243.835200837843
 21
32.83251461328165
  0
LINE
  8
DRAW1
  6
CONTINUOUS
 10
246.4618193622335
 20
35.17629042519745
 11
247.5191531828247
 21
36.23362424578865
  0
LINE
  8
DRAW1
  6
CONTINUOUS
 10
243.2862820110328
 20
32.00075307399685
 11
243.978375819877
 21
32.69284688284115
  0
LINE
  8
DRAW1
  6
CONTINUOUS
 10
246.4952446204933
 20
34.92687297098284
 11
247.6270710558592
 21
36.05869940634865
  0
LINE
  8
DRAW1
  6
CONTINUOUS
 10
243.4830412249038
 20
31.91466957539315
 11
244.142816823963
 21
32.57444517445224
  0
LINE
  8
DRAW1
  6
CONTINUOUS
 10
246.5136491663639
 20
34.66243480437875
 11
247.7219889100319
 21
35.87077454804675
  0
LINE
  8
DRAW1
  6
CONTINUOUS
 10
243.6938833677517
 20
31.84266900576633
 11
244.329969544789
 21
32.47875518280374
  0
LINE
  8
DRAW1
  6
CONTINUOUS
 10
246.5134296265607
 20
34.37937255210115
 11
247.8045750374776
 21
35.67051796301765
  0
LINE
  8
DRAW1
  6
CONTINUOUS
 10
243.9207440599025
 20
31.78668698544284
 11
244.5408991401432
 21
32.40684206568334
  0
LINE
  8
DRAW1
  6
CONTINUOUS
 10
246.4902642100514
 20
34.07336442311693
 11
247.875071655544
 21
35.45817186860965
  0
LINE
  8
DRAW1
  6
CONTINUOUS
 10
244.15638649262
 20
31.73948670568565
 11
244.7800501428242
 21
32.36315035588994
  0
LINE
  8
DRAW1
  6
CONTINUOUS
 10
246.438297553638
 20
33.73855505422874
 11
247.9321373562681
 21
35.23239485685885
  0
LINE
  8
DRAW1
  6
CONTINUOUS
 10
244.4026035527153
 20
31.70286105330645
 11
245.0580425951884
 21
32.35830009577934
  0
LINE
  8
DRAW1
  6
CONTINUOUS
 10
246.3422981354059
 20
33.35971292352225
 11
247.9735835991617
 21
34.99099838727794
  0
LINE
  8
DRAW1
  6
CONTINUOUS
 10
244.6610722599322
 20
31.67848704804864
 11
245.4040518820719
 21
32.42146667018825
  0
LINE
  8
DRAW1
  6
CONTINUOUS
 10
244.9333946289074
 20
31.66796670454913
 11
247.9968556769577
 21
34.73142775259943
  0
LINE
  8
DRAW1
  6
CONTINUOUS
 10
245.2262476178617
 20
31.67797698102883
 11
248.0003661120632
 21
34.45209547523025
  0
LINE
  8
DRAW1
  6
CONTINUOUS
 10
245.5402447460924
 20
31.70913139678474
 11
247.984837838977
 21
34.15372448966933
  0
LINE
  8
DRAW1
  6
CONTINUOUS
 10
245.881010035434
 20
31.76705397365176
 11
247.9328662493297
 21
33.81891018754773
  0
LINE
  8
DRAW1
  6
CONTINUOUS
 10
246.2573247106147
 20
31.86052593635755
 11
247.8220650292477
 21
33.42526625499075
  0
LINE
  8
DRAW1
  6
CONTINUOUS
 10
246.7676832297572
 20
32.08804174302576
 11
247.5668205963215
 21
32.88717910959015
  0
LINE
  8
DRAW1
  6
CONTINUOUS
 10
229.5150280209882
 20
36.04858996985324
 11
230.4721549146799
 21
37.00571686354503
  0
LINE
  8
DRAW1
  6
CONTINUOUS
 10
229.3002766979682
 20
35.55099593435865
 11
230.9471838370607
 21
37.19790307345123
  0
LINE
  8
DRAW1
  6
CONTINUOUS
 10
229.2011479978342
 20
35.16902452175013
 11
231.314908948801
 21
37.28278547271695
  0
LINE
  8
DRAW1
  6
CONTINUOUS
 10
229.1559858238562
 20
34.84101963529734
 11
231.6507584460088
 21
37.33579225745005
  0
LINE
  8
DRAW1
  6
CONTINUOUS
 10
229.1453569171485
 20
34.54754801611485
 11
231.9610781893552
 21
37.36326928832183
  0
LINE
  8
DRAW1
  6
CONTINUOUS
 10
231.202627665767
 20
36.32197605225893
 11
232.250827595939
 21
37.37017598243084
  0
LINE
  8
DRAW1
  6
CONTINUOUS
 10
229.1513367942512
 20
34.27068518074323
 11
231.105839012603
 21
36.22518739909485
  0
LINE
  8
DRAW1
  6
CONTINUOUS
 10
231.8032792594021
 20
36.63978493341953
 11
232.5212868921784
 21
37.35779256619576
  0
LINE
  8
DRAW1
  6
CONTINUOUS
 10
229.1781709738222
 20
34.01467664783975
 11
230.7869856226632
 21
35.62349129668043
  0
LINE
  8
DRAW1
  6
CONTINUOUS
 10
232.1346208111027
 20
36.68828377264565
 11
232.7781941614096
 21
37.33185712295195
  0
LINE
  8
DRAW1
  6
CONTINUOUS
 10
229.2226928842285
 20
33.77635584577125
 11
230.7018519758239
 21
35.25551493736664
  0
LINE
  8
DRAW1
  6
CONTINUOUS
 10
232.4054949882337
 20
36.67631523730184
 11
233.023199219031
 21
37.29401946809934
  0
LINE
  8
DRAW1
  6
CONTINUOUS
 10
229.2822908281321
 20
33.55311107720034
 11
230.6547621282724
 21
34.92558237734035
  0
LINE
  8
DRAW1
  6
CONTINUOUS
 10
232.6394578140037
 20
36.62743535059714
 11
233.2586871073472
 21
37.24666464394032
  0
LINE
  8
DRAW1
  6
CONTINUOUS
 10
229.3551674526265
 20
33.34314498922014
 11
230.6354847025405
 21
34.62346223913393
  0
LINE
  8
DRAW1
  6
CONTINUOUS
 10
232.8460839985326
 20
36.55121882265134
 11
233.4832687966895
 21
37.18840362080844
  0
LINE
  8
DRAW1
  6
CONTINUOUS
 10
229.4399209083399
 20
33.14505573245874
 11
230.638396080211
 21
34.34353090432994
  0
LINE
  8
DRAW1
  6
CONTINUOUS
 10
233.0287469329548
 20
36.45103904459914
 11
233.6918567167045
 21
37.11414882834883
  0
LINE
  8
DRAW1
  6
CONTINUOUS
 10
229.5374208647317
 20
32.95971297637594
 11
230.658912783977
 21
34.08120489562116
  0
LINE
  8
DRAW1
  6
CONTINUOUS
 10
233.1890500581835
 20
36.32849945735323
 11
233.8862570617026
 21
37.02570646087195
  0
LINE
  8
DRAW1
  6
CONTINUOUS
 10
229.647337439464
 20
32.78678683863375
 11
230.6939065936614
 21
33.83335599283085
  0
LINE
  8
DRAW1
  6
CONTINUOUS
 10
233.3283595176726
 20
36.18496620436766
 11
234.0677664565777
 21
36.92437314327275
  0
LINE
  8
DRAW1
  6
CONTINUOUS
 10
229.7683577819559
 20
32.62496446865093
 11
230.7404872758551
 21
33.59709396255015
  0
LINE
  8
DRAW1
  6
CONTINUOUS
 10
233.4414946693497
 20
36.01525864357033
 11
234.2360339883198
 21
36.80979796254015
  0
LINE
  8
DRAW1
  6
CONTINUOUS
 10
229.9003227064877
 20
32.47408668070783
 11
230.8014786950962
 21
33.37524266931685
  0
LINE
  8
DRAW1
  6
CONTINUOUS
 10
233.5357733402975
 20
35.82669460204333
 11
234.388118740145
 21
36.67904000189084
  0
LINE
  8
DRAW1
  6
CONTINUOUS
 10
230.0428915817707
 20
32.33381284351644
 11
230.8822038766252
 21
33.17312513837074
  0
LINE
  8
DRAW1
  6
CONTINUOUS
 10
233.6124398718679
 20
35.62051842113864
 11
234.5293481644699
 21
36.53742671374106
  0
LINE
  8
DRAW1
  6
CONTINUOUS
 10
230.1963449168227
 20
32.20442346609384
 11
230.9801364043346
 21
32.98821495360575
  0
LINE
  8
DRAW1
  6
CONTINUOUS
 10
233.668733806561
 20
35.39396964335764
 11
234.6597972002535
 21
36.38503303705004
  0
LINE
  8
DRAW1
  6
CONTINUOUS
 10
230.368867427567
 20
32.09410326436365
 11
231.099652141169
 21
32.82488797796565
  0
LINE
  8
DRAW1
  6
CONTINUOUS
 10
233.713835997877
 20
35.15622912219875
 11
234.7793376891285
 21
36.22173081345044
  0
LINE
  8
DRAW1
  6
CONTINUOUS
 10
230.553323614713
 20
31.99571673903465
 11
231.244169595791
 21
32.68656272011303
  0
LINE
  8
DRAW1
  6
CONTINUOUS
 10
233.7457517885347
 20
34.90530220038185
 11
234.8873626953379
 21
36.04691310718515
  0
LINE
  8
DRAW1
  6
CONTINUOUS
 10
230.7506580899922
 20
31.91020850183965
 11
231.409578265966
 21
32.56912867781334
  0
LINE
  8
DRAW1
  6
CONTINUOUS
 10
233.7627152375867
 20
34.63942293695924
 11
234.9825637374175
 21
35.85927143679034
  0
LINE
  8
DRAW1
  6
CONTINUOUS
 10
230.9622915039396
 20
31.83899920331224
 11
231.5975252497725
 21
32.47423294914525
  0
LINE
  8
DRAW1
  6
CONTINUOUS
 10
233.7606884000548
 20
34.35455338695273
 11
235.0655525156055
 21
35.65941750250325
  0
LINE
  8
DRAW1
  6
CONTINUOUS
 10
231.1900269142997
 20
31.78389190119775
 11
231.8094104043507
 21
32.40327539124876
  0
LINE
  8
DRAW1
  6
CONTINUOUS
 10
233.73570599443
 20
34.04672826885333
 11
235.13632370785
 21
35.44734598227343
  0
LINE
  8
DRAW1
  6
CONTINUOUS
 10
231.4259769211935
 20
31.73699919561683
 11
232.0504190908717
 21
32.36144136529514
  0
LINE
  8
DRAW1
  6
CONTINUOUS
 10
233.6811871135997
 20
33.70936667554854
 11
235.193524577839
 21
35.22170413978775
  0
LINE
  8
DRAW1
  6
CONTINUOUS
 10
231.6728170468376
 20
31.70099660878633
 11
232.33196704339
 21
32.36014660533884
  0
LINE
  8
DRAW1
  6
CONTINUOUS
 10
233.5792136001552
 20
33.32455044962943
 11
235.2349171758802
 21
34.98025402535434
  0
LINE
  8
DRAW1
  6
CONTINUOUS
 10
231.9320437097066
 20
31.67738055918075
 11
232.6864988410902
 21
32.43183569056434
  0
LINE
  8
DRAW1
  6
CONTINUOUS
 10
232.2053834719439
 20
31.66787760894344
 11
235.2578400462546
 21
34.72033418325425
  0
LINE
  8
DRAW1
  6
CONTINUOUS
 10
232.4998721923369
 20
31.67952361686174
 11
235.2609116420949
 21
34.44056306661985
  0
LINE
  8
DRAW1
  6
CONTINUOUS
 10
232.8157585358085
 20
31.71256724785884
 11
235.2436520324375
 21
34.14046074448784
  0
LINE
  8
DRAW1
  6
CONTINUOUS
 10
233.159020029387
 20
31.77298602896273
 11
235.1882253318654
 21
33.80219133144114
  0
LINE
  8
DRAW1
  6
CONTINUOUS
 10
233.540503066159
 20
31.87162635326014
 11
235.0706445857719
 21
33.40176787287304
  0
LINE
  8
DRAW1
  6
CONTINUOUS
 10
234.0733904933834
 20
32.12167106800995
 11
234.783234822733
 21
32.83151539735933
  0
LINE
  8
DRAW1
  6
CONTINUOUS
 10
235.7505232413402
 20
36.91007365318755
 11
235.9680239154094
 21
37.12757432725685
  0
LINE
  8
DRAW1
  6
CONTINUOUS
 10
235.7505232413402
 20
36.62723094071295
 11
236.250866627884
 21
37.12757432725685
  0
LINE
  8
DRAW1
  6
CONTINUOUS
 10
235.7505232413402
 20
36.34438822823834
 11
236.5337093403587
 21
37.12757432725685
  0
LINE
  8
DRAW1
  6
CONTINUOUS
 10
235.7505232413402
 20
36.06154551576366
 11
236.8165520528334
 21
37.12757432725685
  0
LINE
  8
DRAW1
  6
CONTINUOUS
 10
235.7505232413402
 20
35.77870280328894
 11
237.099394765308
 21
37.12757432725685
  0
LINE
  8
DRAW1
  6
CONTINUOUS
 10
235.7505232413402
 20
35.49586009081433
 11
237.3822374777827
 21
37.12757432725685
  0
LINE
  8
DRAW1
  6
CONTINUOUS
 10
235.7505232413402
 20
35.21301737833973
 11
237.6650801902573
 21
37.12757432725685
  0
LINE
  8
DRAW1
  6
CONTINUOUS
 10
237.2598576027077
 20
36.43950902723283
 11
237.9479229027319
 21
37.12757432725685
  0
LINE
  8
DRAW1
  6
CONTINUOUS
 10
235.9256518523846
 20
35.10530327690985
 11
236.5460544375505
 21
35.72570586207534
  0
LINE
  8
DRAW1
  6
CONTINUOUS
 10
237.5693072818732
 20
36.46611599392374
 11
238.2307656152065
 21
37.12757432725685
  0
LINE
  8
DRAW1
  6
CONTINUOUS
 10
236.2084945648595
 20
35.10530327690985
 11
236.4751380789767
 21
35.37194679102713
  0
LINE
  8
DRAW1
  6
CONTINUOUS
 10
237.8521499943477
 20
36.46611599392374
 11
238.5136083276812
 21
37.12757432725685
  0
LINE
  8
DRAW1
  6
CONTINUOUS
 10
237.9374698559232
 20
36.26859314302435
 11
238.7964510401557
 21
37.12757432725685
  0
LINE
  8
DRAW1
  6
CONTINUOUS
 10
237.9374698559232
 20
35.98575043055014
 11
239.0792937526305
 21
37.12757432725685
  0
LINE
  8
DRAW1
  6
CONTINUOUS
 10
237.9374698559232
 20
35.70290771807545
 11
239.362136465105
 21
37.12757432725685
  0
LINE
  8
DRAW1
  6
CONTINUOUS
 10
237.9374698559232
 20
35.42006500560085
 11
239.6449791775797
 21
37.12757432725685
  0
LINE
  8
DRAW1
  6
CONTINUOUS
 10
237.9374698559232
 20
35.13722229312624
 11
239.9278218900542
 21
37.12757432725685
  0
LINE
  8
DRAW1
  6
CONTINUOUS
 10
239.5492062691957
 20
36.46611599392374
 11
240.2106646025287
 21
37.12757432725685
  0
LINE
  8
DRAW1
  6
CONTINUOUS
 10
237.9374698559232
 20
34.85437958065144
 11
239.2665876944652
 21
36.18349741919333
  0
LINE
  8
DRAW1
  6
CONTINUOUS
 10
239.8266151157477
 20
36.46068212800115
 11
240.4935073150035
 21
37.12757432725685
  0
LINE
  8
DRAW1
  6
CONTINUOUS
 10
237.9374698559232
 20
34.57153686817675
 11
239.2665876944652
 21
35.90065470671875
  0
LINE
  8
DRAW1
  6
CONTINUOUS
 10
240.054278598565
 20
36.40550289834384
 11
240.7763500274781
 21
37.12757432725685
  0
LINE
  8
DRAW1
  6
CONTINUOUS
 10
237.9374698559232
 20
34.28869415570232
 11
239.2665876944652
 21
35.61781199424404
  0
LINE
  8
DRAW1
  6
CONTINUOUS
 10
240.242032827378
 20
36.31041441468194
 11
241.0591927399529
 21
37.12757432725685
  0
LINE
  8
DRAW1
  6
CONTINUOUS
 10
237.9374698559232
 20
34.00585144322766
 11
239.2665876944652
 21
35.33496928176935
  0
LINE
  8
DRAW1
  6
CONTINUOUS
 10
240.3980369206681
 20
36.18357579549765
 11
241.3420354524275
 21
37.12757432725685
  0
LINE
  8
DRAW1
  6
CONTINUOUS
 10
237.9374698559232
 20
33.72300873075294
 11
239.2665876944652
 21
35.05212656929483
  0
LINE
  8
DRAW1
  6
CONTINUOUS
 10
240.5213279440895
 20
36.02402410644443
 11
241.4528452899512
 21
36.95554145230632
  0
LINE
  8
DRAW1
  6
CONTINUOUS
 10
237.9374698559232
 20
33.44016601827845
 11
239.2665876944652
 21
34.76928385682014
  0
LINE
  8
DRAW1
  6
CONTINUOUS
 10
236.8584659496735
 20
32.36116211202834
 11
237.011206289902
 21
32.51390245225694
  0
LINE
  8
DRAW1
  6
CONTINUOUS
 10
240.6167168326775
 20
35.83657028255793
 11
241.4528452899512
 21
36.67269873983175
  0
LINE
  8
DRAW1
  6
CONTINUOUS
 10
237.9374698559232
 20
33.15732330580373
 11
239.2665876944652
 21
34.48644114434553
  0
LINE
  8
DRAW1
  6
CONTINUOUS
 10
236.8584659496735
 20
32.07831939955385
 11
237.2940490023767
 21
32.51390245225694
  0
LINE
  8
DRAW1
  6
CONTINUOUS
 10
240.6878641555545
 20
35.62487489296025
 11
241.4528452899512
 21
36.38985602735694
  0
LINE
  8
DRAW1
  6
CONTINUOUS
 10
237.9374698559232
 20
32.87448059332915
 11
239.2665876944652
 21
34.20359843187093
  0
LINE
  8
DRAW1
  6
CONTINUOUS
 10
236.935414935337
 20
31.87242567274315
 11
237.5768917148514
 21
32.51390245225694
  0
LINE
  8
DRAW1
  6
CONTINUOUS
 10
240.728442058561
 20
35.38261008349225
 11
241.4528452899512
 21
36.10701331488245
  0
LINE
  8
DRAW1
  6
CONTINUOUS
 10
237.2182576478119
 20
31.87242567274315
 11
239.2665876944652
 21
33.92075571939624
  0
LINE
  8
DRAW1
  6
CONTINUOUS
 10
240.7339779644534
 20
35.10530327690985
 11
241.4528452899512
 21
35.82417060240785
  0
LINE
  8
DRAW1
  6
CONTINUOUS
 10
237.5011003602865
 20
31.87242567274315
 11
239.2665876944652
 21
33.63791300692144
  0
LINE
  8
DRAW1
  6
CONTINUOUS
 10
241.016820676928
 20
35.10530327690985
 11
241.4528452899512
 21
35.54132788993313
  0
LINE
  8
DRAW1
  6
CONTINUOUS
 10
237.783943072761
 20
31.87242567274315
 11
239.2665876944652
 21
33.35507029444675
  0
LINE
  8
DRAW1
  6
CONTINUOUS
 10
241.2996633894027
 20
35.10530327690985
 11
241.4528452899512
 21
35.25848517745844
  0
LINE
  8
DRAW1
  6
CONTINUOUS
 10
238.0667857852357
 20
31.87242567274315
 11
239.2665876944652
 21
33.07222758197231
  0
LINE
  8
DRAW1
  6
CONTINUOUS
 10
238.3496284977105
 20
31.87242567274315
 11
239.2664169354922
 21
32.78921411052475
  0
LINE
  8
DRAW1
  6
CONTINUOUS
 10
238.6324712101851
 20
31.87242567274315
 11
239.3550229389657
 21
32.59497740152393
  0
LINE
  8
DRAW1
  6
CONTINUOUS
 10
238.9153139226597
 20
31.87242567274315
 11
239.5575487615127
 21
32.51466051159603
  0
LINE
  8
DRAW1
  6
CONTINUOUS
 10
239.1981566351344
 20
31.87242567274315
 11
239.8396334146482
 21
32.51390245225694
  0
LINE
  8
DRAW1
  6
CONTINUOUS
 10
239.4809993476086
 20
31.87242567274315
 11
240.1224761271229
 21
32.51390245225694
  0
LINE
  8
DRAW1
  6
CONTINUOUS
 10
239.7638420600836
 20
31.87242567274315
 11
240.3459361102637
 21
32.45451972292325
  0
LINE
  8
DRAW1
  6
CONTINUOUS
 10
240.0466847725582
 20
31.87242567274315
 11
240.3459361102637
 21
32.17167701044865
  0
LINE
  8
DRAW1
  6
CONTINUOUS
 10
240.3295274850327
 20
31.87242567274315
 11
240.3459361102637
 21
31.88883429797393
  0
LINE
  8
DRAW1
  6
CONTINUOUS
 10
222.9995358281458
 20
36.88700830135083
 11
223.2401018540517
 21
37.12757432725685
  0
LINE
  8
DRAW1
  6
CONTINUOUS
 10
222.9995358281458
 20
36.60416558887634
 11
223.5229445665263
 21
37.12757432725685
  0
LINE
  8
DRAW1
  6
CONTINUOUS
 10
222.9995358281458
 20
36.32132287640165
 11
223.8057872790009
 21
37.12757432725685
  0
LINE
  8
DRAW1
  6
CONTINUOUS
 10
222.9995358281458
 20
36.03848016392685
 11
224.0886299914756
 21
37.12757432725685
  0
LINE
  8
DRAW1
  6
CONTINUOUS
 10
222.9995358281458
 20
35.75563745145244
 11
224.3714727039502
 21
37.12757432725685
  0
LINE
  8
DRAW1
  6
CONTINUOUS
 10
222.9995358281458
 20
35.47279473897775
 11
224.6543154164248
 21
37.12757432725685
  0
LINE
  8
DRAW1
  6
CONTINUOUS
 10
222.9995358281458
 20
35.18995202650315
 11
224.9371581288995
 21
37.12757432725685
  0
LINE
  8
DRAW1
  6
CONTINUOUS
 10
224.5387034372553
 20
36.44627692313814
 11
225.2200008413738
 21
37.12757432725685
  0
LINE
  8
DRAW1
  6
CONTINUOUS
 10
223.1977297910269
 20
35.10530327690985
 11
223.7829512280048
 21
35.69052471388766
  0
LINE
  8
DRAW1
  6
CONTINUOUS
 10
224.8413852205155
 20
36.46611599392374
 11
225.5028435538487
 21
37.12757432725685
  0
LINE
  8
DRAW1
  6
CONTINUOUS
 10
223.4805725035017
 20
35.10530327690985
 11
223.7213955285644
 21
35.34612630197275
  0
LINE
  8
DRAW1
  6
CONTINUOUS
 10
225.1242279329902
 20
36.46611599392374
 11
225.7856862663234
 21
37.12757432725685
  0
LINE
  8
DRAW1
  6
CONTINUOUS
 10
225.1940616527985
 20
36.25310700125765
 11
226.068528978798
 21
37.12757432725685
  0
LINE
  8
DRAW1
  6
CONTINUOUS
 10
225.1940616527985
 20
35.97026428878264
 11
226.3513716912726
 21
37.12757432725685
  0
LINE
  8
DRAW1
  6
CONTINUOUS
 10
225.1940616527985
 20
35.68742157630824
 11
226.634214403747
 21
37.12757432725685
  0
LINE
  8
DRAW1
  6
CONTINUOUS
 10
225.1940616527985
 20
35.40457886383375
 11
226.9170571162217
 21
37.12757432725685
  0
LINE
  8
DRAW1
  6
CONTINUOUS
 10
226.5384414953633
 20
36.46611599392385
 11
227.1998998286965
 21
37.12757432725685
  0
LINE
  8
DRAW1
  6
CONTINUOUS
 10
225.1940616527985
 20
35.12173615135903
 11
226.5224904722428
 21
36.45016497080364
  0
LINE
  8
DRAW1
  6
CONTINUOUS
 10
226.8212842078378
 20
36.46611599392385
 11
227.4827425411711
 21
37.12757432725685
  0
LINE
  8
DRAW1
  6
CONTINUOUS
 10
225.1940616527985
 20
34.83889343888434
 11
226.5224904722428
 21
36.16732225832884
  0
LINE
  8
DRAW1
  6
CONTINUOUS
 10
227.096873485082
 20
36.45886255869316
 11
227.7655852536457
 21
37.12757432725685
  0
LINE
  8
DRAW1
  6
CONTINUOUS
 10
225.1940616527985
 20
34.55605072640985
 11
226.5224904722428
 21
35.88447954585423
  0
LINE
  8
DRAW1
  6
CONTINUOUS
 10
227.3219569343979
 20
36.40110329553464
 11
228.0484279661204
 21
37.12757432725685
  0
LINE
  8
DRAW1
  6
CONTINUOUS
 10
225.1940616527985
 20
34.27320801393513
 11
226.5224904722428
 21
35.60163683337974
  0
LINE
  8
DRAW1
  6
CONTINUOUS
 10
227.5079487289673
 20
36.30425237762925
 11
228.331270678595
 21
37.12757432725685
  0
LINE
  8
DRAW1
  6
CONTINUOUS
 10
225.1940616527985
 20
33.99036530146033
 11
226.5224904722428
 21
35.31879412090474
  0
LINE
  8
DRAW1
  6
CONTINUOUS
 10
227.6625298102951
 20
36.17599074648275
 11
228.6141133910694
 21
37.12757432725685
  0
LINE
  8
DRAW1
  6
CONTINUOUS
 10
225.1940616527985
 20
33.70752258898584
 11
226.5224904722428
 21
35.03595140843025
  0
LINE
  8
DRAW1
  6
CONTINUOUS
 10
227.7842871180034
 20
36.01490534171613
 11
228.7087480677291
 21
36.93936629144183
  0
LINE
  8
DRAW1
  6
CONTINUOUS
 10
225.1940616527985
 20
33.42467987651124
 11
226.5224904722428
 21
34.75310869595585
  0
LINE
  8
DRAW1
  6
CONTINUOUS
 10
224.1067895173818
 20
32.33740774109465
 11
224.2832842285442
 21
32.51390245225694
  0
LINE
  8
DRAW1
  6
CONTINUOUS
 10
227.8788446471704
 20
35.82662015840843
 11
228.7087480677291
 21
36.65652357896734
  0
LINE
  8
DRAW1
  6
CONTINUOUS
 10
225.1940616527985
 20
33.14183716403663
 11
226.5224904722428
 21
34.47026598348116
  0
LINE
  8
DRAW1
  6
CONTINUOUS
 10
224.1067895173818
 20
32.05456502861965
 11
224.5661269410188
 21
32.51390245225694
  0
LINE
  8
DRAW1
  6
CONTINUOUS
 10
227.9489681799777
 20
35.61390097874114
 11
228.7087480677291
 21
36.37368086649273
  0
LINE
  8
DRAW1
  6
CONTINUOUS
 10
225.1940616527985
 20
32.85899445156174
 11
226.5224904722428
 21
34.18742327100632
  0
LINE
  8
DRAW1
  6
CONTINUOUS
 10
224.2074928739794
 20
31.87242567274315
 11
224.8489696534932
 21
32.51390245225694
  0
LINE
  8
DRAW1
  6
CONTINUOUS
 10
227.987992153608
 20
35.37008223989695
 11
228.7087480677291
 21
36.09083815401785
  0
LINE
  8
DRAW1
  6
CONTINUOUS
 10
224.4903355864541
 20
31.87242567274315
 11
226.5224904722428
 21
33.90458055853183
  0
LINE
  8
DRAW1
  6
CONTINUOUS
 10
228.0060559030955
 20
35.10530327690985
 11
228.7087480677291
 21
35.80799544154324
  0
LINE
  8
DRAW1
  6
CONTINUOUS
 10
224.7731782989287
 20
31.87242567274315
 11
226.5224904722428
 21
33.62173784605723
  0
LINE
  8
DRAW1
  6
CONTINUOUS
 10
228.28889861557
 20
35.10530327690985
 11
228.7087480677291
 21
35.52515272906875
  0
LINE
  8
DRAW1
  6
CONTINUOUS
 10
225.0560210114032
 20
31.87242567274315
 11
226.5224904722428
 21
33.33889513358265
  0
LINE
  8
DRAW1
  6
CONTINUOUS
 10
228.5717413280446
 20
35.10530327690985
 11
228.7087480677291
 21
35.24231001659415
  0
LINE
  8
DRAW1
  6
CONTINUOUS
 10
225.338863723878
 20
31.87242567274315
 11
226.5224904722428
 21
33.05605242110794
  0
LINE
  8
DRAW1
  6
CONTINUOUS
 10
225.6217064363526
 20
31.87242567274315
 11
226.523378753529
 21
32.77409798991955
  0
LINE
  8
DRAW1
  6
CONTINUOUS
 10
225.9045491488272
 20
31.87242567274315
 11
226.6194832422049
 21
32.58735976612063
  0
LINE
  8
DRAW1
  6
CONTINUOUS
 10
226.1873918613016
 20
31.87242567274315
 11
226.8287940001693
 21
32.51382781161045
  0
LINE
  8
DRAW1
  6
CONTINUOUS
 10
226.4702345737765
 20
31.87242567274315
 11
227.1117113532904
 21
32.51390245225694
  0
LINE
  8
DRAW1
  6
CONTINUOUS
 10
226.7530772862509
 20
31.87242567274315
 11
227.3945540657648
 21
32.51390245225694
  0
LINE
  8
DRAW1
  6
CONTINUOUS
 10
227.0359199987257
 20
31.87242567274315
 11
227.6028724166874
 21
32.43937809070475
  0
LINE
  8
DRAW1
  6
CONTINUOUS
 10
227.3187627112003
 20
31.87242567274315
 11
227.6028724166874
 21
32.15653537823015
  0
LINE
  8
DRAW1
  6
CONTINUOUS
 10
227.601605423675
 20
31.87242567274315
 11
227.6028724166874
 21
31.87369266575514
  0
TEXT
  8
DRAW1
  6
CONTINUOUS
 62
     7
 10
332.7734375
 20
5.599999904632568
 40
3.5
 41
0.848214324234296
 50
0.0
 51
0.0
  7
STANDARD
  1
Y
  0
TEXT
  8
DRAW1
  6
CONTINUOUS
 62
     7
 10
335.890625
 20
5.599999904632568
 40
3.5
 41
0.848214324234296
 50
0.0
 51
0.0
  7
STANDARD
  1
H
  0
TEXT
  8
DRAW1
  6
CONTINUOUS
 62
     7
 10
339.0078125
 20
5.599999904632568
 40
3.5
 41
0.848214324234296
 50
0.0
 51
0.0
  7
STANDARD
  1
R
  0
TEXT
  8
DRAW1
  6
CONTINUOUS
 62
     7
 10
342.125
 20
5.599999904632568
 40
3.5
 41
0.848214324234296
 50
0.0
 51
0.0
  7
STANDARD
  1
6
  0
TEXT
  8
DRAW1
  6
CONTINUOUS
 62
     7
 10
345.2421875
 20
5.599999904632568
 40
3.5
 41
0.848214324234296
 50
0.0
 51
0.0
  7
STANDARD
  1
0
  0
TEXT
  8
DRAW1
  6
CONTINUOUS
 62
     7
 10
348.359375
 20
5.599999904632568
 40
3.5
 41
0.848214324234296
 50
0.0
 51
0.0
  7
STANDARD
  1
0
  0
TEXT
  8
DRAW1
  6
CONTINUOUS
 62
     7
 10
351.4765625
 20
5.599999904632568
 40
3.5
 41
0.848214324234296
 50
0.0
 51
0.0
  7
STANDARD
  1
M
  0
TEXT
  8
DRAW1
  6
CONTINUOUS
 62
     7
 10
320.49609375
 20
29.97500038146973
 40
3.5
 41
0.9078947368421053
 50
0.0
 51
0.0
  7
STANDARD
  1
âC
  0
TEXT
  8
DRAW1
  6
CONTINUOUS
 62
     7
 10
324.26953125
 20
29.97500038146973
 40
3.5
 41
0.9078947368421053
 50
0.0
 51
0.0
  7
STANDARD
  1
âô
  0
TEXT
  8
DRAW1
  6
CONTINUOUS
 62
     7
 10
328.04296875
 20
29.97500038146973
 40
3.5
 41
0.9078947368421053
 50
0.0
 51
0.0
  7
STANDARD
  1
âe
  0
TEXT
  8
DRAW1
  6
CONTINUOUS
 62
     7
 10
331.81640625
 20
29.97500038146973
 40
3.5
 41
0.9078947368421053
 50
0.0
 51
0.0
  7
STANDARD
  1
âè
  0
TEXT
  8
DRAW1
  6
CONTINUOUS
 62
     7
 10
335.58984375
 20
29.97500038146973
 40
3.5
 41
0.9078947368421053
 50
0.0
 51
0.0
  7
STANDARD
  1
âA
  0
TEXT
  8
DRAW1
  6
CONTINUOUS
 62
     7
 10
339.36328125
 20
29.97500038146973
 40
3.5
 41
0.9078947368421053
 50
0.0
 51
0.0
  7
STANDARD
  1
üE
  0
TEXT
  8
DRAW1
  6
CONTINUOUS
 62
     7
 10
343.13671875
 20
29.97500038146973
 40
3.5
 41
0.9078947368421053
 50
0.0
 51
0.0
  7
STANDARD
  1
âo
  0
TEXT
  8
DRAW1
  6
CONTINUOUS
 62
     7
 10
346.91015625
 20
29.97500038146973
 40
3.5
 41
0.9078947368421053
 50
0.0
 51
0.0
  7
STANDARD
  1
ü[
  0
TEXT
  8
DRAW1
  6
CONTINUOUS
 62
     7
 10
320.49609375
 20
25.60000038146973
 40
3.5
 41
0.9078947368421053
 50
0.0
 51
0.0
  7
STANDARD
  1
üi
  0
TEXT
  8
DRAW1
  6
CONTINUOUS
 62
     7
 10
324.26953125
 20
25.60000038146973
 40
3.5
 41
0.9078947368421053
 50
0.0
 51
0.0
  7
STANDARD
  1
âR
  0
TEXT
  8
DRAW1
  6
CONTINUOUS
 62
     7
 10
328.04296875
 20
25.60000038146973
 40
3.5
 41
0.9078947368421053
 50
0.0
 51
0.0
  7
STANDARD
  1
âô
  0
TEXT
  8
DRAW1
  6
CONTINUOUS
 62
     7
 10
331.81640625
 20
25.60000038146973
 40
3.5
 41
0.9078947368421053
 50
0.0
 51
0.0
  7
STANDARD
  1
âe
  0
TEXT
  8
DRAW1
  6
CONTINUOUS
 62
     7
 10
335.58984375
 20
25.60000038146973
 40
3.5
 41
0.9078947368421053
 50
0.0
 51
0.0
  7
STANDARD
  1
âô
  0
TEXT
  8
DRAW1
  6
CONTINUOUS
 62
     7
 10
339.36328125
 20
25.60000038146973
 40
3.5
 41
0.9078947368421053
 50
0.0
 51
0.0
  7
STANDARD
  1
â|
  0
TEXT
  8
DRAW1
  6
CONTINUOUS
 62
     7
 10
343.13671875
 20
25.60000038146973
 40
3.5
 41
0.9078947368421053
 50
0.0
 51
0.0
  7
STANDARD
  1
âë
  0
TEXT
  8
DRAW1
  6
CONTINUOUS
 62
     7
 10
346.91015625
 20
25.60000038146973
 40
3.5
 41
0.9078947368421053
 50
0.0
 51
0.0
  7
STANDARD
  1
âè
  0
TEXT
  8
DRAW1
  6
CONTINUOUS
 62
     7
 10
350.68359375
 20
25.60000038146973
 40
3.5
 41
0.9078947368421053
 50
0.0
 51
0.0
  7
STANDARD
  1
â^
  0
TEXT
  8
DRAW1
  6
CONTINUOUS
 62
     7
 10
354.45703125
 20
25.60000038146973
 40
3.5
 41
0.9078947368421053
 50
0.0
 51
0.0
  7
STANDARD
  1
âC
  0
TEXT
  8
DRAW1
  6
CONTINUOUS
 62
     7
 10
358.23046875
 20
25.60000038146973
 40
3.5
 41
0.9078947368421053
 50
0.0
 51
0.0
  7
STANDARD
  1
âv
  0
TEXT
  8
DRAW1
  6
CONTINUOUS
 62
     7
 10
362.00390625
 20
25.60000038146973
 40
3.5
 41
0.9078947368421053
 50
0.0
 51
0.0
  7
STANDARD
  1
üj
  0
TEXT
  8
DRAW1
  6
CONTINUOUS
 62
     7
 10
263.04296875
 20
18.25
 40
3.5
 41
0.5505952630994553
 50
0.0
 51
0.0
  7
STANDARD
  1
0
  0
TEXT
  8
DRAW1
  6
CONTINUOUS
 62
     7
 10
265.06640625
 20
18.25
 40
3.5
 41
0.5505952630994553
 50
0.0
 51
0.0
  7
STANDARD
  1
5
  0
TEXT
  8
DRAW1
  6
CONTINUOUS
 62
     7
 10
267.08984375
 20
18.25
 40
3.5
 41
0.5505952630994553
 50
0.0
 51
0.0
  7
STANDARD
  1
.
  0
TEXT
  8
DRAW1
  6
CONTINUOUS
 62
     7
 10
269.11328125
 20
18.25
 40
3.5
 41
0.5505952630994553
 50
0.0
 51
0.0
  7
STANDARD
  1
0
  0
TEXT
  8
DRAW1
  6
CONTINUOUS
 62
     7
 10
271.13671875
 20
18.25
 40
3.5
 41
0.5505952630994553
 50
0.0
 51
0.0
  7
STANDARD
  1
4
  0
TEXT
  8
DRAW1
  6
CONTINUOUS
 62
     7
 10
273.16015625
 20
18.25
 40
3.5
 41
0.5505952630994553
 50
0.0
 51
0.0
  7
STANDARD
  1
.
  0
TEXT
  8
DRAW1
  6
CONTINUOUS
 62
     7
 10
275.18359375
 20
18.25
 40
3.5
 41
0.5505952630994553
 50
0.0
 51
0.0
  7
STANDARD
  1
0
  0
TEXT
  8
DRAW1
  6
CONTINUOUS
 62
     7
 10
277.20703125
 20
18.25
 40
3.5
 41
0.5505952630994553
 50
0.0
 51
0.0
  7
STANDARD
  1
1
  0
TEXT
  8
DRAW1
  6
CONTINUOUS
 62
     7
 10
214.5
 20
20.11718559265137
 40
3.0
 41
0.9078947368421053
 50
0.0
 51
0.0
  7
STANDARD
  1
Æå
  0
TEXT
  8
DRAW1
  6
CONTINUOUS
 62
     7
 10
214.5000010569773
 20
16.88281059265154
 40
3.0
 41
0.9078947368421053
 50
0.0
 51
0.0
  7
STANDARD
  1
Éý
  0
TEXT
  8
DRAW1
  6
CONTINUOUS
 62
     0
 10
286.0
 20
18.24999952316284
 40
3.5
 41
0.9078947368421053
 50
0.0
 51
0.0
  7
STANDARD
  1
éP
  0
TEXT
  8
DRAW1
  6
CONTINUOUS
 62
     0
 10
289.7734375
 20
18.24999952316284
 40
3.5
 41
0.9078947368421053
 50
0.0
 51
0.0
  7
STANDARD
  1
üF
  0
TEXT
  8
DRAW1
  6
CONTINUOUS
 62
     0
 10
293.546875
 20
18.24999952316284
 40
3.5
 41
0.9078947368421053
 50
0.0
 51
0.0
  7
STANDARD
  1
éR
  0
ENDSEC
  0
EOF
