  0
SECTION
  2
HEADER
  9
$CLAYER
  8
0
  9
$CELTYPE
  6
BYLAYER
  9
$CECOLOR
 62
   256
  9
$EXTMAX
 10
0
 20
296.9999998974308
 30
0
  9
$EXTMIN
 10
-420
 20
-1.025691744871438e-007
 30
0
  9
$LIMMAX
 10
0
 20
296.9999998974308
  9
$LIMMIN
 10
-420
 20
-1.025691744871438e-007
  9
$PLIMMAX
 10
0
 20
296.9999998974308
  9
$PLIMMIN
 10
-420
 20
-1.025691744871438e-007
  9
$PEXTMAX
 10
0
 20
296.9999998974308
 30
0
  9
$PEXTMIN
 10
-420
 20
-1.025691744871438e-007
 30
0
  9
$TEXTSIZE
 40
3.2
  9
$DIMSHO
 70
     0
  9
$DIMASZ
 40
1.0
  9
$DIMTAD
 70
     1
  9
$DIMTIH
 70
     0
  9
$DIMTOH
 70
     0
  9
$DIMEXE
 40
2.54
  9
$DIMEXO
 40
2.54
  9
$DIMTVP
 40
1.0
  9
$DIMSAH
 70
     1
  9
$DIMDLE
 40
0.0
  9
$DIMTXT
 40
3.200000047683716
  9
$DIMGAP
 40
1.600000023841858
  9
$DIMBLK1
  1
_OPEN30
  9
$DIMBLK2
  1
_OPEN30
  0
ENDSEC
  0
SECTION
  2
TABLES
  0
TABLE
  2
LTYPE
 70
     53
  0
LTYPE
  2
CONTINUOUS
 70
    64
  3
Solid line
 72
    65
 73
     0
 40
0.0
  0
LTYPE
  2
ACAD_ISO02W100
 70
     0
  3
ISO dash __ __ __ __ __ __ __ __ __ __ __ __ __
 72
    65
 73
     2
 40
15.0
 49
12.0
 49
-3.0
  0
LTYPE
  2
ACAD_ISO03W100
 70
     0
  3
ISO dash space __    __    __    __    __    __
 72
    65
 73
     2
 40
30.0
 49
12.0
 49
-18.0
  0
LTYPE
  2
ACAD_ISO04W100
 70
     0
  3
ISO long-dash dot ____ . ____ . ____ . ____ . _
 72
    65
 73
     4
 40
30.0
 49
24.0
 49
-3.0
 49
0.0
 49
-3.0
  0
LTYPE
  2
ACAD_ISO05W100
 70
     0
  3
ISO long-dash double-dot ____ .. ____ .. ____ .
 72
    65
 73
     6
 40
33.0
 49
24.0
 49
-3.0
 49
0.0
 49
-3.0
 49
0.0
 49
-3.0
  0
LTYPE
  2
ACAD_ISO06W100
 70
     0
  3
ISO long-dash triple-dot ____ ... ____ ... ____
 72
    65
 73
     8
 40
36.0
 49
24.0
 49
-3.0
 49
0.0
 49
-3.0
 49
0.0
 49
-3.0
 49
0.0
 49
-3.0
  0
LTYPE
  2
ACAD_ISO07W100
 70
     0
  3
ISO dot . . . . . . . . . . . . . . . . . . . .
 72
    65
 73
     2
 40
3.0
 49
0.0
 49
-3.0
  0
LTYPE
  2
ACAD_ISO08W100
 70
     0
  3
ISO long-dash short-dash ____ __ ____ __ ____ _
 72
    65
 73
     4
 40
36.0
 49
24.0
 49
-3.0
 49
6.0
 49
-3.0
  0
LTYPE
  2
ACAD_ISO09W100
 70
     0
  3
ISO long-dash double-short-dash ____ __ __ ____
 72
    65
 73
     6
 40
45.0
 49
24.0
 49
-3.0
 49
6.0
 49
-3.0
 49
6.0
 49
-3.0
  0
LTYPE
  2
ACAD_ISO10W100
 70
     0
  3
ISO dash dot __ . __ . __ . __ . __ . __ . __ .
 72
    65
 73
     4
 40
18.0
 49
12.0
 49
-3.0
 49
0.0
 49
-3.0
  0
LTYPE
  2
ACAD_ISO11W100
 70
     0
  3
ISO double-dash dot __ __ . __ __ . __ __ . __ 
 72
    65
 73
     6
 40
33.0
 49
12.0
 49
-3.0
 49
12.0
 49
-3.0
 49
0.0
 49
-3.0
  0
LTYPE
  2
ACAD_ISO12W100
 70
     0
  3
ISO dash double-dot __ . . __ . . __ . . __ . .
 72
    65
 73
     6
 40
21.0
 49
12.0
 49
-3.0
 49
0.0
 49
-3.0
 49
0.0
 49
-3.0
  0
LTYPE
  2
ACAD_ISO13W100
 70
     0
  3
ISO double-dash double-dot __ __ . . __ __ . . 
 72
    65
 73
     8
 40
36.0
 49
12.0
 49
-3.0
 49
12.0
 49
-3.0
 49
0.0
 49
-3.0
 49
0.0
 49
-3.0
  0
LTYPE
  2
ACAD_ISO14W100
 70
     0
  3
ISO dash triple-dot __ . . . __ . . . __ . . . 
 72
    65
 73
     8
 40
24.0
 49
12.0
 49
-3.0
 49
0.0
 49
-3.0
 49
0.0
 49
-3.0
 49
0.0
 49
-3.0
  0
LTYPE
  2
ACAD_ISO15W100
 70
     0
  3
ISO double-dash triple-dot __ __ . . . __ __ . 
 72
    65
 73
    10
 40
39.0
 49
12.0
 49
-3.0
 49
12.0
 49
-3.0
 49
0.0
 49
-3.0
 49
0.0
 49
-3.0
 49
0.0
 49
-3.0
  0
LTYPE
  2
BORDER
 70
    64
  3
Border __ __ . __ __ . __ __ . __ __ . __ __ .
 72
    65
 73
     6
 40
3.5
 49
1.0
 49
-0.5
 49
1.0
 49
-0.5
 49
0.0
 49
-0.5
  0
LTYPE
  2
BORDER2
 70
    64
  3
Border (.5x) __.__.__.__.__.__.__.__.__.__.__.
 72
    65
 73
     6
 40
1.75
 49
0.5
 49
-0.25
 49
0.5
 49
-0.25
 49
0.0
 49
-0.25
  0
LTYPE
  2
BORDERX2
 70
    64
  3
Border (2x) ____  ____  .  ____  ____  .  ___
 72
    65
 73
     6
 40
7.0
 49
2.0
 49
-1.0
 49
2.0
 49
-1.0
 49
0.0
 49
-1.0
  0
LTYPE
  2
CENTER
 70
    64
  3
Center ____ _ ____ _ ____ _ ____ _ ____ _ ____
 72
    65
 73
     4
 40
12.0
 49
7.5
 49
-1.5
 49
1.5
 49
-1.5
  0
LTYPE
  2
CENTER2
 70
    64
  3
Center (.5x) ___ _ ___ _ ___ _ ___ _ ___ _ ___
 72
    65
 73
     4
 40
6.0
 49
3.75
 49
-0.75
 49
0.75
 49
-0.75
  0
LTYPE
  2
CENTERX2
 70
    64
  3
Center (2x) ________  __  ________  __  _____
 72
    65
 73
     4
 40
24.0
 49
15.0
 49
-3.0
 49
3.0
 49
-3.0
  0
LTYPE
  2
DASHDOT
 70
    64
  3
Dash dot __ . __ . __ . __ . __ . __ . __ . __
 72
    65
 73
     4
 40
6.0
 49
3.0
 49
-1.5
 49
0.0
 49
-1.5
  0
LTYPE
  2
DASHDOT2
 70
    64
  3
Dash dot (.5x) _._._._._._._._._._._._._._._.
 72
    65
 73
     4
 40
3.0
 49
1.5
 49
-0.75
 49
0.0
 49
-0.75
  0
LTYPE
  2
DASHDOTX2
 70
    64
  3
Dash dot (2x) ____  .  ____  .  ____  .  ___
 72
    65
 73
     4
 40
12.0
 49
6.0
 49
-3.0
 49
0.0
 49
-3.0
  0
LTYPE
  2
DASHED
 70
    64
  3
Dashed __ __ __ __ __ __ __ __ __ __ __ __ __ _
 72
    65
 73
     2
 40
4.5
 49
3.0
 49
-1.5
  0
LTYPE
  2
DASHED2
 70
    64
  3
Dashed (.5x) _ _ _ _ _ _ _ _ _ _ _ _ _ _ _ _ _
 72
    65
 73
     2
 40
2.25
 49
1.5
 49
-0.75
  0
LTYPE
  2
DASHEDX2
 70
    64
  3
Dashed (2x) ____  ____  ____  ____  ____  ___
 72
    65
 73
     2
 40
9.0
 49
6.0
 49
-3.0
  0
LTYPE
  2
DIVIDE
 70
    64
  3
Divide ____ . . ____ . . ____ . . ____ . . ____
 72
    65
 73
     6
 40
7.5
 49
3.0
 49
-1.5
 49
0.0
 49
-1.5
 49
0.0
 49
-1.5
  0
LTYPE
  2
DIVIDE2
 70
    64
  3
Divide (.5x) __..__..__..__..__..__..__..__.._
 72
    65
 73
     6
 40
3.75
 49
1.5
 49
-0.75
 49
0.0
 49
-0.75
 49
0.0
 49
-0.75
  0
LTYPE
  2
DIVIDEX2
 70
    64
  3
Divide (2x) ________  .  .  ________  .  .  _
 72
    65
 73
     6
 40
15.0
 49
6.0
 49
-3.0
 49
0.0
 49
-3.0
 49
0.0
 49
-3.0
  0
LTYPE
  2
DOT
 70
    64
  3
Dot . . . . . . . . . . . . . . . . . . . . . .
 72
    65
 73
     2
 40
1.5
 49
0.0
 49
-1.5
  0
LTYPE
  2
DOT2
 70
    64
  3
Dot (.5x) .....................................
 72
    65
 73
     2
 40
0.75
 49
0.0
 49
-0.75
  0
LTYPE
  2
DOTX2
 70
    64
  3
Dot (2x) .  .  .  .  .  .  .  .  .  .  .  .  . 
 72
    65
 73
     2
 40
3.0
 49
0.0
 49
-3.0
  0
LTYPE
  2
HIDDEN
 70
    64
  3
Hidden __ __ __ __ __ __ __ __ __ __ __ __ __ _
 72
    65
 73
     2
 40
4.5
 49
3.0
 49
-1.5
  0
LTYPE
  2
HIDDEN2
 70
    64
  3
Hidden (.5x) _ _ _ _ _ _ _ _ _ _ _ _ _ _ _ _ _
 72
    65
 73
     2
 40
2.25
 49
1.5
 49
-0.75
  0
LTYPE
  2
HIDDENX2
 70
    64
  3
Hidden (2x) ____ ____ ____ ____ ____ ____ ____
 72
    65
 73
     2
 40
9.0
 49
6.0
 49
-3.0
  0
LTYPE
  2
PHANTOM
 70
    64
  3
Phantom ______  __  __  ______  __  __  ______
 72
    65
 73
     6
 40
15.0
 49
7.5
 49
-1.5
 49
1.5
 49
-1.5
 49
1.5
 49
-1.5
  0
LTYPE
  2
PHANTOM2
 70
    64
  3
Phantom (.5x) ___ _ _ ___ _ _ ___ _ _ ___ _ _
 72
    65
 73
     6
 40
7.5
 49
3.75
 49
-0.75
 49
0.75
 49
-0.75
 49
0.75
 49
-0.75
  0
LTYPE
  2
PHANTOMX2
 70
    64
  3
Phantom (2x) ____________    ____    ____   _
 72
    65
 73
     6
 40
30.0
 49
15.0
 49
-3.0
 49
3.0
 49
-3.0
 49
3.0
 49
-3.0
  0
LTYPE
  2
JIS_02_0_7
 70
     0
  3
HIDDEN0.75 _ _ _ _ _ _ _ _ _ _ _ _ _ _ _ _ _
 72
    65
 73
     2
 40
1.3500000000000001
 49
0.75
 49
-0.6
  0
LTYPE
  2
JIS_02_1_0
 70
     0
  3
HIDDEN01 _ _ _ _ _ _ _ _ _ _ _ _ _ _ _ _ _
 72
    65
 73
     2
 40
2.0
 49
1.0
 49
-1.0
  0
LTYPE
  2
JIS_02_1_2
 70
     0
  3
HIDDEN01.25  _ _ _ _ _ _ _ _ _ _ _ _ _ _ _ _ _
 72
    65
 73
     2
 40
2.5
 49
1.25
 49
-1.25
  0
LTYPE
  2
JIS_02_2_0
 70
     0
  3
HIDDEN02 __ __ __ __ __ __ __ __ __ __ __
 72
    65
 73
     2
 40
3.0
 49
2.0
 49
-1.0
  0
LTYPE
  2
JIS_02_4_0
 70
     0
  3
HIDDEN04 ____ ____ ____ ____ ____ ____ ____
 72
    65
 73
     2
 40
5.5
 49
4.0
 49
-1.5
  0
LTYPE
  2
JIS_08_11
 70
     0
  3
1SASEN11 ___ _ ___ _ ___ _ ___ _ ___ _ ___
 72
    65
 73
     4
 40
12.800000000000001
 49
11.0
 49
-0.6
 49
0.6
 49
-0.6
  0
LTYPE
  2
JIS_08_15
 70
     0
  3
1SASEN15 ____ _ ____ _ ____ _ ____ _ ____
 72
    65
 73
     4
 40
17.25
 49
15.0
 49
-0.75
 49
0.75
 49
-0.75
  0
LTYPE
  2
JIS_08_25
 70
     0
  3
1SASEN25 ________  __  ________  __  _____
 72
    65
 73
     4
 40
28.0
 49
25.0
 49
-1.125
 49
0.75
 49
-1.125
  0
LTYPE
  2
JIS_08_37
 70
     0
  3
1SASEN37 ________  __  ________  __  _____
 72
    65
 73
     4
 40
40.499999999999993
 49
37.5
 49
-1.125
 49
0.75
 49
-1.125
  0
LTYPE
  2
JIS_08_50
 70
     0
  3
1SASEN50 _______________  __  ____________
 72
    65
 73
     4
 40
53.0
 49
50.0
 49
-1.125
 49
0.75
 49
-1.125
  0
LTYPE
  2
JIS_09_08
 70
     0
  3
2SASEN8 __ _ _ __ _ _ __ _ _ __ _ _ __ _ _
 72
    65
 73
     6
 40
10.75
 49
8.0
 49
-0.55
 49
0.55
 49
-0.55
 49
0.55
 49
-0.55
  0
LTYPE
  2
JIS_09_15
 70
     0
  3
2SASEN15 ___ _ _ ___ _ _ ___ _ _ ___ _ _ ___
 72
    65
 73
     6
 40
18.899999999999999
 49
15.0
 49
-0.9
 49
0.6
 49
-0.9
 49
0.6
 49
-0.9
  0
LTYPE
  2
JIS_09_29
 70
     0
  3
2SASEN29 ______  __  __  ______  __  __  ___
 72
    65
 73
     6
 40
34.0
 49
29.0
 49
-1.1999999999999991
 49
0.7
 49
-1.1999999999999991
 49
0.7
 49
-1.1999999999999991
  0
LTYPE
  2
JIS_09_50
 70
     0
  3
2SASEN50 ____________  __  __  _____________
 72
    65
 73
     6
 40
55.0
 49
50.0
 49
-1.1999999999999991
 49
0.7
 49
-1.1999999999999991
 49
0.7
 49
-1.1999999999999991
  0
ENDTAB
  0
TABLE
  2
LAYER
 70
     2
  0
LAYER
  2
0
 70
     0
 62
     7
  6
CONTINUOUS
  0
LAYER
  2
1
 70
     0
 62
     7
  6
CONTINUOUS
  0
ENDTAB
  0
TABLE
  2
STYLE
 70
     1
  0
STYLE
  2
STANDARD
 70
     0
 40
0.0
 41
1.0
 50
0.0
 71
     0
 42
0.2
  3
txt
  4
BIGFONT
  0
ENDTAB
  0
TABLE
  2
DIMSTYLE
 70
     0
  0
ENDTAB
  0
ENDSEC
  0
SECTION
  2
BLOCKS
  0
BLOCK
  8
0
  2
KOZU0001
 70
    64
 10
0
 20
0
  0
LINE
  8
0
  6
CONTINUOUS
 62
     7
 10
-145.5263158099998
 20
37.57017797146477
 11
-144.9122718411737
 21
37.57017797146477
  0
LINE
  8
0
  6
CONTINUOUS
 62
     7
 10
-144.2140351159998
 20
36.60526569646478
 11
-144.2140351159998
 21
36.41228324146479
  0
LINE
  8
0
  6
CONTINUOUS
 62
     7
 10
-144.5614035350001
 20
34.09649378146477
 11
-144.5614035350001
 21
33.5175464164648
  0
LINE
  8
0
  6
CONTINUOUS
 62
     7
 10
-145.5263158099999
 20
37.57017797146474
 11
-145.5263158099999
 21
34.40526570946477
  0
LINE
  8
0
  6
CONTINUOUS
 62
     7
 10
-143.5964912599999
 20
38.14912533646478
 11
-143.5964912599999
 21
36.41228324146479
  0
LINE
  8
0
  6
CONTINUOUS
 62
     7
 10
-144.5614035350001
 20
34.0964937814648
 11
-145.2175438820001
 21
34.0964937814648
  0
LINE
  8
0
  6
CONTINUOUS
 62
     7
 10
-143.5964912599999
 20
36.41228324146482
 11
-144.2140351159998
 21
36.41228324146482
  0
LINE
  8
0
  6
CONTINUOUS
 62
     7
 10
-147.2982545088263
 20
37.57017797146477
 11
-146.6842105399998
 21
37.57017797146477
  0
LINE
  8
0
  6
CONTINUOUS
 62
     7
 10
-147.6491228149999
 20
34.0964937814648
 11
-146.9929824679999
 21
34.0964937814648
  0
LINE
  8
0
  6
CONTINUOUS
 62
     7
 10
-146.6842105399998
 20
37.57017797146474
 11
-146.6842105399998
 21
34.40526570946477
  0
LINE
  8
0
  6
CONTINUOUS
 62
     7
 10
-147.6491228149999
 20
33.51754641646483
 11
-144.5614035350001
 21
33.51754641646483
  0
LINE
  8
0
  6
CONTINUOUS
 62
     7
 10
-148.6140350900001
 20
38.14912533646486
 11
-143.5964912599999
 21
38.14912533646486
  0
LINE
  8
0
  6
CONTINUOUS
 62
     7
 10
-147.9964912339999
 20
36.60526569646478
 11
-147.9964912339999
 21
36.41228324146479
  0
LINE
  8
0
  6
CONTINUOUS
 62
     7
 10
-148.6140350899997
 20
38.14912533646478
 11
-148.6140350899997
 21
36.41228324146479
  0
LINE
  8
0
  6
CONTINUOUS
 62
     7
 10
-147.649122815
 20
34.09649378146477
 11
-147.649122815
 21
33.5175464164648
  0
LINE
  8
0
  6
CONTINUOUS
 62
     7
 10
-148.6140350900001
 20
36.41228324146482
 11
-147.9964912339998
 21
36.41228324146482
  0
LINE
  8
0
  6
CONTINUOUS
 62
     7
 10
-156.7192981999998
 20
37.57017797146477
 11
-156.1052542311737
 21
37.57017797146477
  0
LINE
  8
0
  6
CONTINUOUS
 62
     7
 10
-155.4070175059998
 20
36.60526569646478
 11
-155.4070175059998
 21
36.41228324146479
  0
LINE
  8
0
  6
CONTINUOUS
 62
     7
 10
-155.7543859250001
 20
34.09649378146477
 11
-155.7543859250001
 21
33.5175464164648
  0
LINE
  8
0
  6
CONTINUOUS
 62
     7
 10
-156.7192981999999
 20
37.57017797146474
 11
-156.7192981999999
 21
34.40526570946477
  0
LINE
  8
0
  6
CONTINUOUS
 62
     7
 10
-154.7894736499999
 20
38.14912533646478
 11
-154.7894736499999
 21
36.41228324146479
  0
LINE
  8
0
  6
CONTINUOUS
 62
     7
 10
-155.7543859250001
 20
34.0964937814648
 11
-156.4105262720001
 21
34.0964937814648
  0
LINE
  8
0
  6
CONTINUOUS
 62
     7
 10
-154.7894736499999
 20
36.41228324146482
 11
-155.4070175059998
 21
36.41228324146482
  0
LINE
  8
0
  6
CONTINUOUS
 62
     7
 10
-158.4912368988263
 20
37.57017797146477
 11
-157.8771929299998
 21
37.57017797146477
  0
LINE
  8
0
  6
CONTINUOUS
 62
     7
 10
-158.8421052049999
 20
34.0964937814648
 11
-158.1859648579999
 21
34.0964937814648
  0
LINE
  8
0
  6
CONTINUOUS
 62
     7
 10
-157.8771929299998
 20
37.57017797146474
 11
-157.8771929299998
 21
34.40526570946477
  0
LINE
  8
0
  6
CONTINUOUS
 62
     7
 10
-158.8421052049999
 20
33.51754641646483
 11
-155.7543859250001
 21
33.51754641646483
  0
LINE
  8
0
  6
CONTINUOUS
 62
     7
 10
-159.8070174800001
 20
38.14912533646486
 11
-154.7894736499999
 21
38.14912533646486
  0
LINE
  8
0
  6
CONTINUOUS
 62
     7
 10
-159.1894736239999
 20
36.60526569646478
 11
-159.1894736239999
 21
36.41228324146479
  0
LINE
  8
0
  6
CONTINUOUS
 62
     7
 10
-159.8070174799997
 20
38.14912533646478
 11
-159.8070174799997
 21
36.41228324146479
  0
LINE
  8
0
  6
CONTINUOUS
 62
     7
 10
-158.842105205
 20
34.09649378146477
 11
-158.842105205
 21
33.5175464164648
  0
LINE
  8
0
  6
CONTINUOUS
 62
     7
 10
-159.8070174800001
 20
36.41228324146482
 11
-159.1894736239998
 21
36.41228324146482
  0
ARC
  8
0
  6
CONTINUOUS
 62
     7
 10
-140.4122807524997
 20
35.3200025461648
 40
1.428070167
 50
192.0827302854402
 51
233.9554528511143
  0
ARC
  8
0
  6
CONTINUOUS
 62
     7
 10
-140.6052632075
 20
35.3200025461648
 40
1.428070167
 50
306.0445471488871
 51
347.9172697145612
  0
ARC
  8
0
  6
CONTINUOUS
 62
     7
 10
-140.1035088245
 20
35.69052885976487
 40
2.2964912145
 50
288.7954866020269
 51
350.1090987889151
  0
ARC
  8
0
  6
CONTINUOUS
 62
     7
 10
-142.3421053025001
 20
35.77544113996487
 40
3.2228069985
 50
346.4630945364893
 51
1.029320866956451
  0
ARC
  8
0
  6
CONTINUOUS
 62
     7
 10
-138.6754386575
 20
35.89123061296482
 40
3.2228069985
 50
164.150078722529
 51
181.0293208669572
  0
ARC
  8
0
  6
CONTINUOUS
 62
     7
 10
-138.6754386575
 20
35.77544113996487
 40
3.2228069985
 50
178.9706791330434
 51
193.5369054635121
  0
ARC
  8
0
  6
CONTINUOUS
 62
     7
 10
-140.5087719800001
 20
36.3736867504648
 40
1.350877185
 50
56.59118530601424
 51
123.4088146939858
  0
ARC
  8
0
  6
CONTINUOUS
 62
     7
 10
-140.9140351355001
 20
35.69052885976487
 40
2.2964912145
 50
189.8909012110862
 51
251.2045133979746
  0
ARC
  8
0
  6
CONTINUOUS
 62
     7
 10
-140.4122807524997
 20
36.34666920676489
 40
1.428070167
 50
126.0445471488864
 51
162.6959035444569
  0
ARC
  8
0
  6
CONTINUOUS
 62
     7
 10
-142.05263162
 20
35.83333587646484
 40
4.245614010000001
 50
352.7297389265652
 51
7.270261073435473
  0
ARC
  8
0
  6
CONTINUOUS
 62
     7
 10
-140.9140351355001
 20
35.97614289316482
 40
2.2964912145
 50
108.7954866020261
 51
170.1090987889146
  0
ARC
  8
0
  6
CONTINUOUS
 62
     7
 10
-140.1035088245
 20
35.97614289316482
 40
2.2964912145
 50
9.890901211085611
 51
71.20451339797388
  0
ARC
  8
0
  6
CONTINUOUS
 62
     7
 10
-140.6052632075
 20
36.34666920676489
 40
1.428070167
 50
17.3040964555431
 51
53.95545285111363
  0
ARC
  8
0
  6
CONTINUOUS
 62
     7
 10
-138.9649123400001
 20
35.83333587646484
 40
4.245614010000001
 50
172.7297389265645
 51
187.2702610734361
  0
ARC
  8
0
  6
CONTINUOUS
 62
     7
 10
-140.5087719800001
 20
34.82982711046486
 40
3.512280681000001
 50
70.08847837174167
 51
109.9115216282583
  0
ARC
  8
0
  6
CONTINUOUS
 62
     7
 10
-140.5087719800001
 20
36.83684464246483
 40
3.512280681000001
 50
250.0884783717424
 51
289.911521628259
  0
ARC
  8
0
  6
CONTINUOUS
 62
     7
 10
-142.3421053025001
 20
35.89123061296482
 40
3.2228069985
 50
358.9706791330441
 51
15.84992127747102
  0
ARC
  8
0
  6
CONTINUOUS
 62
     7
 10
-140.5087719800001
 20
35.29298500246478
 40
1.350877185
 50
236.5911853060151
 51
303.4088146939865
  0
ARC
  8
0
  6
CONTINUOUS
 62
     7
 10
-145.5842105465001
 20
36.60526569646481
 40
1.3701754305
 50
0
 51
15.47863944165374
  0
ARC
  8
0
  6
CONTINUOUS
 62
     7
 10
-145.0824561635001
 20
36.74421306406487
 40
0.8495375219467715
 50
15.47863610704418
 51
66.25050550713245
  0
ARC
  8
0
  6
CONTINUOUS
 62
     7
 10
-144.9975438833
 20
36.93719551906486
 40
0.6387003258295056
 50
66.2505055071323
 51
82.32760665635597
  0
ARC
  8
0
  6
CONTINUOUS
 62
     7
 10
-145.2175438820001
 20
34.40526570946486
 40
0.308771928
 50
180.0000000000004
 51
270.0000000000005
  0
ARC
  8
0
  6
CONTINUOUS
 62
     7
 10
-146.6263158035001
 20
36.60526569646481
 40
1.3701754305
 50
164.5213605583463
 51
180.0000000000004
  0
ARC
  8
0
  6
CONTINUOUS
 62
     7
 10
-147.1280701865
 20
36.74421306406487
 40
0.8495375219467715
 50
113.7494944928676
 51
164.5213638929558
  0
ARC
  8
0
  6
CONTINUOUS
 62
     7
 10
-147.2129824667001
 20
36.93719551906486
 40
0.6387003258295056
 50
97.67239334364403
 51
113.7494944928677
  0
ARC
  8
0
  6
CONTINUOUS
 62
     7
 10
-146.992982468
 20
34.40526570946486
 40
0.308771928
 50
270.0000000000005
 51
360
  0
ARC
  8
0
  6
CONTINUOUS
 62
     7
 10
-151.6052631425002
 20
35.3200025461648
 40
1.428070167
 50
192.0827302854402
 51
233.9554528511143
  0
ARC
  8
0
  6
CONTINUOUS
 62
     7
 10
-151.7982455974999
 20
35.3200025461648
 40
1.428070167
 50
306.0445471488871
 51
347.9172697145612
  0
ARC
  8
0
  6
CONTINUOUS
 62
     7
 10
-151.2964912145
 20
35.69052885976487
 40
2.2964912145
 50
288.7954866020269
 51
350.1090987889151
  0
ARC
  8
0
  6
CONTINUOUS
 62
     7
 10
-153.5350876925001
 20
35.77544113996487
 40
3.2228069985
 50
346.4630945364893
 51
1.029320866956451
  0
ARC
  8
0
  6
CONTINUOUS
 62
     7
 10
-149.8684210475
 20
35.89123061296482
 40
3.2228069985
 50
164.150078722529
 51
181.0293208669572
  0
ARC
  8
0
  6
CONTINUOUS
 62
     7
 10
-149.8684210475
 20
35.77544113996487
 40
3.2228069985
 50
178.9706791330434
 51
193.5369054635121
  0
ARC
  8
0
  6
CONTINUOUS
 62
     7
 10
-151.7017543700001
 20
36.3736867504648
 40
1.350877185
 50
56.59118530601424
 51
123.4088146939858
  0
ARC
  8
0
  6
CONTINUOUS
 62
     7
 10
-152.1070175255001
 20
35.69052885976487
 40
2.2964912145
 50
189.8909012110862
 51
251.2045133979746
  0
ARC
  8
0
  6
CONTINUOUS
 62
     7
 10
-151.6052631425002
 20
36.34666920676489
 40
1.428070167
 50
126.0445471488864
 51
162.6959035444569
  0
ARC
  8
0
  6
CONTINUOUS
 62
     7
 10
-153.24561401
 20
35.83333587646484
 40
4.245614010000001
 50
352.7297389265652
 51
7.270261073435473
  0
ARC
  8
0
  6
CONTINUOUS
 62
     7
 10
-152.1070175255001
 20
35.97614289316482
 40
2.2964912145
 50
108.7954866020261
 51
170.1090987889146
  0
ARC
  8
0
  6
CONTINUOUS
 62
     7
 10
-151.2964912145
 20
35.97614289316482
 40
2.2964912145
 50
9.890901211085611
 51
71.20451339797388
  0
ARC
  8
0
  6
CONTINUOUS
 62
     7
 10
-151.7982455974999
 20
36.34666920676489
 40
1.428070167
 50
17.3040964555431
 51
53.95545285111363
  0
ARC
  8
0
  6
CONTINUOUS
 62
     7
 10
-150.1578947300001
 20
35.83333587646484
 40
4.245614010000001
 50
172.7297389265645
 51
187.2702610734361
  0
ARC
  8
0
  6
CONTINUOUS
 62
     7
 10
-151.7017543700001
 20
34.82982711046486
 40
3.512280681000001
 50
70.08847837174167
 51
109.9115216282583
  0
ARC
  8
0
  6
CONTINUOUS
 62
     7
 10
-151.7017543700001
 20
36.83684464246483
 40
3.512280681000001
 50
250.0884783717424
 51
289.911521628259
  0
ARC
  8
0
  6
CONTINUOUS
 62
     7
 10
-153.5350876925001
 20
35.89123061296482
 40
3.2228069985
 50
358.9706791330441
 51
15.84992127747102
  0
ARC
  8
0
  6
CONTINUOUS
 62
     7
 10
-151.7017543700001
 20
35.29298500246478
 40
1.350877185
 50
236.5911853060151
 51
303.4088146939865
  0
ARC
  8
0
  6
CONTINUOUS
 62
     7
 10
-156.7771929365001
 20
36.60526569646481
 40
1.3701754305
 50
0
 51
15.47863944165374
  0
ARC
  8
0
  6
CONTINUOUS
 62
     7
 10
-156.2754385535001
 20
36.74421306406487
 40
0.8495375219467715
 50
15.47863610704418
 51
66.25050550713245
  0
ARC
  8
0
  6
CONTINUOUS
 62
     7
 10
-156.1905262733
 20
36.93719551906486
 40
0.6387003258295056
 50
66.2505055071323
 51
82.32760665635597
  0
ARC
  8
0
  6
CONTINUOUS
 62
     7
 10
-156.4105262720001
 20
34.40526570946486
 40
0.308771928
 50
180.0000000000004
 51
270.0000000000005
  0
ARC
  8
0
  6
CONTINUOUS
 62
     7
 10
-157.8192981935001
 20
36.60526569646481
 40
1.3701754305
 50
164.5213605583463
 51
180.0000000000004
  0
ARC
  8
0
  6
CONTINUOUS
 62
     7
 10
-158.3210525765
 20
36.74421306406487
 40
0.8495375219467715
 50
113.7494944928676
 51
164.5213638929558
  0
ARC
  8
0
  6
CONTINUOUS
 62
     7
 10
-158.4059648567001
 20
36.93719551906486
 40
0.6387003258295056
 50
97.67239334364403
 51
113.7494944928677
  0
ARC
  8
0
  6
CONTINUOUS
 62
     7
 10
-158.185964858
 20
34.40526570946486
 40
0.308771928
 50
270.0000000000005
 51
360
  0
ENDBLK
  8
0
  0
BLOCK
  8
0
  2
KOZU0002
 70
    64
 10
0
 20
0
  0
LINE
  8
0
  6
HIDDEN
 62
     7
 10
-420
 20
-1.025691744871438e-007
 11
0
 21
-1.025691744871438e-007
  0
LINE
  8
0
  6
HIDDEN
 62
     7
 10
0
 20
297
 11
0
 21
-1.025691744871438e-007
  0
POLYLINE
  8
0
  6
CONTINUOUS
 62
     7
 66
     1
 10
0
 20
0
 40
0.5
 41
0.5
  0
VERTEX
  8
0
  6
CONTINUOUS
 62
     7
 10
-395
 20
287
  0
VERTEX
  8
0
  6
CONTINUOUS
 62
     7
 10
-395
 20
9.999999046325684
  0
SEQEND
  8
0
  6
CONTINUOUS
 62
     7
  0
LINE
  8
0
  6
HIDDEN
 62
     7
 10
-420
 20
297
 11
-420
 21
-1.025691744871438e-007
  0
POLYLINE
  8
0
  6
CONTINUOUS
 62
     7
 66
     1
 10
0
 20
0
 40
0.5
 41
0.5
  0
VERTEX
  8
0
  6
CONTINUOUS
 62
     7
 10
-10
 20
9.999999046325684
  0
VERTEX
  8
0
  6
CONTINUOUS
 62
     7
 10
-10
 20
287
  0
SEQEND
  8
0
  6
CONTINUOUS
 62
     7
  0
POLYLINE
  8
0
  6
CONTINUOUS
 62
     7
 66
     1
 10
0
 20
0
 40
0.5
 41
0.5
  0
VERTEX
  8
0
  6
CONTINUOUS
 62
     7
 10
-395
 20
9.999999046325684
  0
VERTEX
  8
0
  6
CONTINUOUS
 62
     7
 10
-10
 20
9.999999046325684
  0
SEQEND
  8
0
  6
CONTINUOUS
 62
     7
  0
POLYLINE
  8
0
  6
CONTINUOUS
 62
     7
 66
     1
 10
0
 20
0
 40
0.5
 41
0.5
  0
VERTEX
  8
0
  6
CONTINUOUS
 62
     7
 10
-169
 20
41
  0
VERTEX
  8
0
  6
CONTINUOUS
 62
     7
 10
-10
 20
41
  0
SEQEND
  8
0
  6
CONTINUOUS
 62
     7
  0
POLYLINE
  8
0
  6
CONTINUOUS
 62
     7
 66
     1
 10
0
 20
0
 40
0.5
 41
0.5
  0
VERTEX
  8
0
  6
CONTINUOUS
 62
     7
 10
-169
 20
9.999999046325684
  0
VERTEX
  8
0
  6
CONTINUOUS
 62
     7
 10
-169
 20
41
  0
SEQEND
  8
0
  6
CONTINUOUS
 62
     7
  0
POLYLINE
  8
0
  6
CONTINUOUS
 62
     7
 66
     1
 10
0
 20
0
 40
0.5
 41
0.5
  0
VERTEX
  8
0
  6
CONTINUOUS
 62
     7
 10
-395
 20
287
  0
VERTEX
  8
0
  6
CONTINUOUS
 62
     7
 10
-10
 20
287
  0
SEQEND
  8
0
  6
CONTINUOUS
 62
     7
  0
LINE
  8
0
  6
HIDDEN
 62
     7
 10
-420
 20
297
 11
0
 21
297
  0
LINE
  8
0
  6
CONTINUOUS
 62
     7
 10
-10
 20
20.33332824707031
 11
-169
 21
20.33332824707031
  0
LINE
  8
0
  6
CONTINUOUS
 62
     7
 10
-95
 20
9.999999046325684
 11
-95
 21
41
  0
LINE
  8
0
  6
CONTINUOUS
 62
     7
 10
-112
 20
20.33332824707031
 11
-112
 21
41
  0
LINE
  8
0
  6
CONTINUOUS
 62
     7
 10
-129
 20
20.33332824707031
 11
-129
 21
41
  0
LINE
  8
0
  6
CONTINUOUS
 62
     7
 10
-10
 20
30.66667175292969
 11
-169
 21
30.66667175292969
  0
LINE
  8
0
  6
CONTINUOUS
 62
     7
 10
-152
 20
20.33332824707031
 11
-152
 21
30.66667175292969
  0
TEXT
  8
0
  6
CONTINUOUS
 62
     7
 10
-126.0700000524521
 20
34.33333587646484
 40
3
 41
0.8510313296336268
  1
第三角法
  0
TEXT
  8
0
  6
CONTINUOUS
 62
     7
 10
-105.8130000531673
 20
32.81667172908783
 40
2.700000047683716
 41
0.8638655508191571
  1
ｍｍ
  0
TEXT
  8
0
  6
CONTINUOUS
 62
     7
 10
-167.4630000591278
 20
26.81667172908783
 40
2.700000047683716
 41
0.8638655619498095
  1
製図
  0
TEXT
  8
0
  6
CONTINUOUS
 62
     7
 10
-150.4630000591278
 20
26.81667172908783
 40
2.700000047683716
 41
0.8638655619498095
  1
検図
  0
TEXT
  8
0
  6
CONTINUOUS
 62
     7
 10
-127.4630000591278
 20
26.81667172908783
 40
2.700000047683716
 41
0.8638655619498095
  1
日付
  0
TEXT
  8
0
  6
CONTINUOUS
 62
     7
 10
-110.4630000591278
 20
26.81667172908783
 40
2.700000047683716
 41
0.8638655619498095
  1
尺度
  0
TEXT
  8
0
  6
CONTINUOUS
 62
     7
 10
-110.4630000591278
 20
37.14999997615814
 40
2.700000047683716
 41
0.8638655619498095
  1
単位
  0
TEXT
  8
0
  6
CONTINUOUS
 62
     7
 10
-93.46300005912781
 20
37.14999997615814
 40
2.700000047683716
 41
0.8638655619498095
  1
名称
  0
TEXT
  8
0
  6
CONTINUOUS
 62
     7
 10
-93.46300005912781
 20
26.81667172908783
 40
2.700000047683716
 41
0.8638655619498095
  1
品番
  0
TEXT
  8
0
  6
CONTINUOUS
 62
     7
 10
-93.46300005912781
 20
16.48332822322846
 40
2.700000047683716
 41
0.8638655619498095
  1
図番
  0
TEXT
  8
0
  6
CONTINUOUS
 62
     7
 10
-167.4630000591278
 20
16.48332822322846
 40
2.700000047683716
 41
0.8638655508191571
  1
備考
  0
TEXT
  8
0
  6
CONTINUOUS
 62
     7
 10
-13.71333342790604
 20
7.499998943756509
 40
2
 41
0.8638655788758222
  1
Ａ３
  0
ENDBLK
  8
0
  0
BLOCK
  8
0
  2
KOZU0003
 70
    64
 10
0
 20
0
  0
LINE
  8
0
  6
CONTINUOUS
 62
     7
 10
0
 20
0
 11
8.481769839415392
 21
12.68971839693401
  0
LINE
  8
0
  6
CONTINUOUS
 62
     7
 10
0
 20
0
 11
0.8357014736114702
 21
3.049852905737219
  0
LINE
  8
0
  6
CONTINUOUS
 62
     7
 10
0
 20
0
 11
2.498472922331507
 21
1.938461440422893
  0
TEXT
  8
0
  6
CONTINUOUS
 62
     7
 10
13.97940346065775
 20
13.58971837309218
 40
3
 41
0.907562961097525
  1
鏡
  0
LINE
  8
0
  6
CONTINUOUS
 62
     7
 10
0
 20
0
 11
8.481769839415392
 21
12.68971839693401
  0
LINE
  8
0
  6
CONTINUOUS
 62
     7
 10
8.481769839415392
 20
12.68971839693401
 11
17.81940325561777
 21
12.68971839693401
  0
ENDBLK
  8
0
  0
BLOCK
  8
0
  2
KOZU0004
 70
    64
 10
0
 20
0
  0
LINE
  8
0
  6
CONTINUOUS
 62
     7
 10
0
 20
0
 11
25.62722098485864
 21
17.94106075749957
  0
LINE
  8
0
  6
CONTINUOUS
 62
     7
 10
0
 20
0
 11
1.884099969510424
 21
2.53971789861019
  0
LINE
  8
0
  6
CONTINUOUS
 62
     7
 10
0
 20
0
 11
3.031110714774453
 21
0.9013143371818974
  0
TEXT
  8
0
  6
CONTINUOUS
 62
     7
 10
29.1166835887916
 20
18.84106073365788
 40
3
 41
0.8441776201790838
  1
鏡固定用フレーム（上側）
  0
LINE
  8
0
  6
CONTINUOUS
 62
     7
 10
0
 20
0
 11
25.62722098485864
 21
17.94106075749957
  0
LINE
  8
0
  6
CONTINUOUS
 62
     7
 10
25.62722098485864
 20
17.94106075749957
 11
65.95668141679835
 21
17.94106075749957
  0
ENDBLK
  8
0
  0
BLOCK
  8
0
  2
KOZU0005
 70
    64
 10
0
 20
0
  0
LINE
  8
0
  6
CONTINUOUS
 62
     7
 10
0
 20
0
 11
28.0029319453626
 21
-15.62277546016389
  0
LINE
  8
0
  6
CONTINUOUS
 62
     7
 10
0
 20
0
 11
3.107067699845381
 21
-0.5883281467069839
  0
LINE
  8
0
  6
CONTINUOUS
 62
     7
 10
0
 20
0
 11
2.132657271852114
 21
-2.334903137272815
  0
TEXT
  8
0
  6
CONTINUOUS
 62
     7
 10
32.37554875934893
 20
-14.72277548400579
 40
3
 41
0.8441776201790838
  1
鏡固定用フレーム（下側）
  0
LINE
  8
0
  6
CONTINUOUS
 62
     7
 10
0
 20
0
 11
28.0029319453626
 21
-15.62277546016389
  0
LINE
  8
0
  6
CONTINUOUS
 62
     7
 10
28.00293194536266
 20
-15.62277546016389
 11
69.21554658735568
 21
-15.62277546016389
  0
ENDBLK
  8
0
  0
ENDSEC
  0
SECTION
  2
ENTITIES
  0
LINE
  8
0
  6
CONTINUOUS
 62
     7
 10
-1771.858364441707
 20
1043.302040679925
 11
-1411.858484068226
 21
1043.302040679925
  0
LINE
  8
0
  6
CONTINUOUS
 62
     7
 10
-1411.858484068225
 20
1043.302040679925
 11
-1411.858484068225
 21
243.302031202787
  0
LINE
  8
0
  6
CONTINUOUS
 62
     7
 10
-1771.858364441707
 20
243.302031202787
 11
-1411.858484068226
 21
243.302031202787
  0
LINE
  8
0
  6
CONTINUOUS
 62
     7
 10
-1771.858364441707
 20
243.302031202787
 11
-1771.858364441707
 21
1043.302040679925
  0
LINE
  8
0
  6
CONTINUOUS
 62
     7
 10
-1070.858333953933
 20
1043.302040679925
 11
-1062.458370825365
 21
1043.302040679925
  0
LINE
  8
0
  6
CONTINUOUS
 62
     7
 10
-1065.25832801731
 20
1039.702049942487
 11
-1065.25832801731
 21
250.3019914419474
  0
LINE
  8
0
  6
CONTINUOUS
 62
     7
 10
-1070.258343127087
 20
1040.902031596178
 11
-1070.258343127087
 21
249.4987346860884
  0
LINE
  8
0
  6
CONTINUOUS
 62
     7
 10
-1070.658337011651
 20
1042.302055968516
 11
-1062.658367767647
 21
1042.302055968516
  0
LINE
  8
0
  6
CONTINUOUS
 62
     7
 10
-1071.858364441707
 20
1042.302055968516
 11
-1071.858364441707
 21
1029.802041082256
  0
LINE
  8
0
  6
CONTINUOUS
 62
     7
 10
-1070.858333953933
 20
1042.102059026234
 11
-1070.858333953933
 21
1029.90206244158
  0
LINE
  8
0
  6
CONTINUOUS
 62
     7
 10
-1070.858333953933
 20
1028.802056370847
 11
-1070.258343127087
 21
1028.802056370847
  0
LINE
  8
0
  6
CONTINUOUS
 62
     7
 10
-1061.45834033759
 20
1042.302055968516
 11
-1061.45834033759
 21
1024.302056504958
  0
LINE
  8
0
  6
CONTINUOUS
 62
     7
 10
-1062.458370825365
 20
1042.102059026234
 11
-1062.458370825365
 21
1024.302056504958
  0
LINE
  8
0
  6
CONTINUOUS
 62
     7
 10
-1070.758358370975
 20
1029.802041082256
 11
-1070.258343127087
 21
1029.802041082256
  0
LINE
  8
0
  6
CONTINUOUS
 62
     7
 10
-1069.558330940918
 20
1041.602043782347
 11
-1062.458370825365
 21
1041.602043782347
  0
LINE
  8
0
  6
CONTINUOUS
 62
     7
 10
-1070.858333953933
 20
1030.302056326144
 11
-1070.258343127087
 21
1030.302056326144
  0
LINE
  8
0
  6
CONTINUOUS
 62
     7
 10
-1060.458355626181
 20
1040.902031596178
 11
-1060.458355626181
 21
990.3020727770254
  0
LINE
  8
0
  6
CONTINUOUS
 62
     7
 10
-1061.15836781235
 20
1040.902031596178
 11
-1061.15836781235
 21
990.3020727770254
  0
LINE
  8
0
  6
CONTINUOUS
 62
     7
 10
-1069.858349242523
 20
1041.102074314825
 11
-1065.65836767824
 21
1041.102074314825
  0
LINE
  8
0
  6
CONTINUOUS
 62
     7
 10
-1070.258329279144
 20
1039.70198215177
 11
-1069.858320322229
 21
1041.102013566064
  0
LINE
  8
0
  6
CONTINUOUS
 62
     7
 10
-1065.658390058608
 20
1041.102117329142
 11
-1065.258381101693
 21
1039.702085914848
  0
LINE
  8
0
  6
CONTINUOUS
 62
     7
 10
-1061.15836781235
 20
990.3020727770254
 11
-1060.458355626181
 21
990.3020727770254
  0
LINE
  8
0
  6
CONTINUOUS
 62
     7
 10
-1065.65836767824
 20
1041.102074314825
 11
-1065.65836767824
 21
248.9020371394092
  0
LINE
  8
0
  6
CONTINUOUS
 62
     7
 10
-1069.858349242524
 20
1041.102074314825
 11
-1069.858349242524
 21
248.9020371394092
  0
LINE
  8
0
  6
DASHED
 62
     7
 10
-1062.458370825365
 20
1041.602043782347
 11
-1061.858334222153
 21
1041.602043782347
  0
LINE
  8
0
  6
DASHED
 62
     7
 10
-1062.658367767647
 20
1042.302055968516
 11
-1061.858334222153
 21
1042.302055968516
  0
LINE
  8
0
  6
CONTINUOUS
 62
     7
 10
-1059.858364799335
 20
1042.302055968516
 11
-1060.458355626181
 21
1042.302055968516
  0
LINE
  8
0
  6
CONTINUOUS
 62
     7
 10
-1060.458355626181
 20
1040.902031596178
 11
-1060.458355626181
 21
1042.302055968516
  0
LINE
  8
0
  6
CONTINUOUS
 62
     7
 10
-1771.858364441707
 20
1310.302031202787
 11
-1411.858484068226
 21
1310.302031202787
  0
LINE
  8
0
  6
DASHED
 62
     7
 10
-1061.158348905392
 20
1025.163285726962
 11
-1060.458355550885
 21
1025.102044244077
  0
LINE
  8
0
  6
DASHED
 62
     7
 10
-1061.158333974771
 20
997.7079311932321
 11
-1060.529198101437
 21
997.8075765219271
  0
LINE
  8
0
  6
CONTINUOUS
 62
     7
 10
-1070.658337011651
 20
244.3020388023788
 11
-1062.658367767647
 21
244.3020388023788
  0
LINE
  8
0
  6
DASHED
 62
     7
 10
-1060.458339802216
 20
1012.70203530451
 11
-1061.158334708917
 21
1010.793226893617
  0
LINE
  8
0
  6
CONTINUOUS
 62
     7
 10
-1059.919535575215
 20
1012.42877453311
 11
-1060.458393274592
 21
1010.959369400305
  0
LINE
  8
0
  6
CONTINUOUS
 62
     7
 10
-1071.858364441707
 20
244.302038802379
 11
-1071.858364441707
 21
256.8020308004557
  0
LINE
  8
0
  6
CONTINUOUS
 62
     7
 10
-1060.041207544855
 20
999.2010279952971
 11
-1059.947355465957
 21
998.608469263287
  0
LINE
  8
0
  6
CONTINUOUS
 62
     7
 10
-1064.02401410102
 20
1005.011998982079
 11
-1065.258359152198
 21
1001.646077040252
  0
LINE
  8
0
  6
CONTINUOUS
 62
     7
 10
-1062.146321493466
 20
1004.323414808759
 11
-1063.584199985117
 21
1000.402479767048
  0
LINE
  8
0
  6
CONTINUOUS
 62
     7
 10
-1062.504589796863
 20
997.4947052279271
 11
-1061.158333974771
 21
997.7079311932321
  0
LINE
  8
0
  6
CONTINUOUS
 62
     7
 10
-1062.817453929862
 20
999.4700517105699
 11
-1061.158325650459
 21
999.7328318026857
  0
LINE
  8
0
  6
CONTINUOUS
 62
     7
 10
-1062.562523053921
 20
1005.22164105122
 11
-1063.125787858559
 21
1005.428200542535
  0
LINE
  8
0
  6
CONTINUOUS
 62
     7
 10
-1070.858333953933
 20
243.302031202787
 11
-1062.458370825365
 21
243.302031202787
  0
LINE
  8
0
  6
CONTINUOUS
 62
     7
 10
-1070.858333953933
 20
248.3020463125641
 11
-1062.458370825365
 21
248.3020463125641
  0
LINE
  8
0
  6
DASHED
 62
     7
 10
-1060.458393274592
 20
1010.959369400305
 11
-1061.158388181293
 21
1009.050560989412
  0
LINE
  8
0
  6
DASHED
 62
     7
 10
-1061.158325650459
 20
999.7328318026857
 11
-1060.842062234435
 21
999.7829230045701
  0
LINE
  8
0
  6
CONTINUOUS
 62
     7
 10
-1061.158388181293
 20
1009.050560989412
 11
-1062.562523053922
 21
1005.221641051221
  0
LINE
  8
0
  6
CONTINUOUS
 62
     7
 10
-1061.158334708917
 20
1010.793226893617
 11
-1061.658342328476
 21
1009.429761616102
  0
LINE
  8
0
  6
CONTINUOUS
 62
     7
 10
-1059.858364799335
 20
1012.773095666907
 11
-1059.858364799335
 21
268.8020304428275
  0
LINE
  8
0
  6
CONTINUOUS
 62
     7
 10
-1070.858333953933
 20
244.5020357446609
 11
-1070.858333953933
 21
256.7020323293147
  0
LINE
  8
0
  6
CONTINUOUS
 62
     7
 10
-1070.858333953933
 20
257.8020384000476
 11
-1070.258343127087
 21
257.8020384000476
  0
LINE
  8
0
  6
CONTINUOUS
 62
     7
 10
-1061.45834033759
 20
244.302038802379
 11
-1061.45834033759
 21
262.3020382659374
  0
LINE
  8
0
  6
CONTINUOUS
 62
     7
 10
-1062.458370825365
 20
244.5020357446609
 11
-1062.458370825365
 21
262.3020382659374
  0
LINE
  8
0
  6
CONTINUOUS
 62
     7
 10
-1070.758358370975
 20
256.8020308004557
 11
-1070.258343127087
 21
256.8020308004557
  0
LINE
  8
0
  6
CONTINUOUS
 62
     7
 10
-1070.776759442705
 20
244.3409003290002
 11
-1062.458336062852
 21
248.3020542801805
  0
LINE
  8
0
  6
CONTINUOUS
 62
     7
 10
-1062.539921066297
 20
244.3408901930801
 11
-1070.85834444615
 21
248.3020441442603
  0
LINE
  8
0
  6
CONTINUOUS
 62
     7
 10
-1069.658352300242
 20
248.9020371394093
 11
-1062.458370825365
 21
248.9020371394093
  0
LINE
  8
0
  6
CONTINUOUS
 62
     7
 10
-1070.258372916975
 20
250.3020621420946
 11
-1069.85836396006
 21
248.9020307277998
  0
LINE
  8
0
  6
CONTINUOUS
 62
     7
 10
-1065.658314981441
 20
248.9020370024024
 11
-1065.258315456327
 21
250.3020354053925
  0
LINE
  8
0
  6
CONTINUOUS
 62
     7
 10
-1070.858333953933
 20
256.3020384447512
 11
-1070.858333953933
 21
249.1020340816914
  0
LINE
  8
0
  6
CONTINUOUS
 62
     7
 10
-1070.858333953933
 20
256.3020384447512
 11
-1070.258343127087
 21
256.3020384447512
  0
LINE
  8
0
  6
DASHED
 62
     7
 10
-1061.15836781235
 20
278.3020454184944
 11
-1061.15836781235
 21
277.2712074365205
  0
LINE
  8
0
  6
CONTINUOUS
 62
     7
 10
-1060.458355626181
 20
264.3084621563364
 11
-1060.458355626181
 21
249.7020477967197
  0
LINE
  8
0
  6
DASHED
 62
     7
 10
-1062.458370825365
 20
260.8020383106407
 11
-1061.45834033759
 21
260.8020383106407
  0
LINE
  8
0
  6
CONTINUOUS
 62
     7
 10
-1060.458355626181
 20
272.8020379530128
 11
-1060.458355626181
 21
266.0447139356469
  0
LINE
  8
0
  6
CONTINUOUS
 62
     7
 10
-1060.041190986387
 20
277.8030172308557
 11
-1059.947331746487
 21
278.3956211756486
  0
LINE
  8
0
  6
CONTINUOUS
 62
     7
 10
-1064.024010969604
 20
271.9920348298142
 11
-1065.258356020783
 21
275.3579567716407
  0
LINE
  8
0
  6
CONTINUOUS
 62
     7
 10
-1062.14627538442
 20
272.6806347638132
 11
-1063.584169636752
 21
276.601612783153
  0
LINE
  8
0
  6
CONTINUOUS
 62
     7
 10
-1062.504611290173
 20
279.5093923720157
 11
-1060.529219594747
 21
279.1965210780157
  0
LINE
  8
0
  6
CONTINUOUS
 62
     7
 10
-1062.817482584173
 20
277.5340006765906
 11
-1060.842090888747
 21
277.2211293825905
  0
LINE
  8
0
  6
CONTINUOUS
 62
     7
 10
-1062.562492705558
 20
271.782451498983
 11
-1063.125800487824
 21
271.5758762469873
  0
LINE
  8
0
  6
DASHED
 62
     7
 10
-1060.458355626181
 20
279.0020347164807
 11
-1060.145703047608
 21
279.0020347164807
  0
LINE
  8
0
  6
CONTINUOUS
 62
     7
 10
-1059.93171975499
 20
264.6086256795063
 11
-1062.562492705559
 21
271.7824514989819
  0
LINE
  8
0
  6
CONTINUOUS
 62
     7
 10
-1060.488928153528
 20
264.3854180851177
 11
-1063.125800487824
 21
271.5758762469859
  0
LINE
  8
0
  6
DASHED
 62
     7
 10
-1062.458370825365
 20
248.3020463125641
 11
-1061.45834033759
 21
248.3020463125641
  0
LINE
  8
0
  6
CONTINUOUS
 62
     7
 10
-1771.858364441707
 20
1298.302031202787
 11
-1411.858484068226
 21
1298.302031202787
  0
LINE
  8
0
  6
CONTINUOUS
 62
     7
 10
-1061.45834033759
 20
248.3020463125641
 11
-1061.258343395308
 21
248.3020463125641
  0
LINE
  8
0
  6
DASHED
 62
     7
 10
-1062.458370825365
 20
248.9020371394093
 11
-1061.45834033759
 21
248.9020371394093
  0
LINE
  8
0
  6
CONTINUOUS
 62
     7
 10
-1060.458355626181
 20
272.8020379530128
 11
-1059.858364799335
 21
272.8020379530128
  0
LINE
  8
0
  6
CONTINUOUS
 62
     7
 10
-1061.45834033759
 20
248.9020371394093
 11
-1061.258343395308
 21
248.9020371394093
  0
LINE
  8
0
  6
DASHED
 62
     7
 10
-1065.25832801731
 20
248.8020386682686
 11
-1060.185986249533
 21
248.8020386682686
  0
LINE
  8
0
  6
CONTINUOUS
 62
     7
 10
-1061.15836781235
 20
277.2712074365205
 11
-1061.15836781235
 21
273.5020501391821
  0
LINE
  8
0
  6
CONTINUOUS
 62
     7
 10
-1065.25832801731
 20
260.8020383106407
 11
-1062.458370825365
 21
260.8020383106407
  0
LINE
  8
0
  6
CONTINUOUS
 62
     7
 10
-1060.145703047608
 20
279.0020347164807
 11
-1059.858364799335
 21
279.0020347164807
  0
LINE
  8
0
  6
DASHED
 62
     7
 10
-1060.458355626181
 20
266.0447139356469
 11
-1060.458355626181
 21
264.213247315424
  0
LINE
  8
0
  6
CENTER
 62
     7
 10
-1064.423550210157
 20
267.3020304875311
 11
-1027.842649200743
 21
267.3020304875311
  0
LINE
  8
0
  6
CONTINUOUS
 62
     7
 10
-1061.45834033759
 20
260.8020383106407
 11
-1060.458355626181
 21
260.8020383106407
  0
LINE
  8
0
  6
DASHED
 62
     7
 10
-1060.458355626181
 20
260.8020383106407
 11
-1060.158337324575
 21
260.8020383106407
  0
LINE
  8
0
  6
DASHED
 62
     7
 10
-1063.958370780661
 20
248.8020386682686
 11
-1063.958370780661
 21
248.9020371394096
  0
LINE
  8
0
  6
DASHED
 62
     7
 10
-1065.25832801731
 20
248.9020371394096
 11
-1065.25832801731
 21
248.8020386682686
  0
LINE
  8
0
  6
CONTINUOUS
 62
     7
 10
-1063.958370780661
 20
248.9020371394096
 11
-1063.958370780661
 21
260.8020383106407
  0
LINE
  8
0
  6
CONTINUOUS
 62
     7
 10
-1060.185986249533
 20
248.8020386682686
 11
-1060.158337324575
 21
248.8020386682686
  0
LINE
  8
0
  6
CONTINUOUS
 62
     7
 10
-1061.577779517317
 20
270.7041133593903
 11
-1060.458382978354
 21
270.8020478662539
  0
LINE
  8
0
  6
CONTINUOUS
 62
     7
 10
-1061.577756183023
 20
263.8999921639535
 11
-1060.458314041886
 21
263.8020536674169
  0
LINE
  8
0
  6
DASHED
 62
     7
 10
-1060.458355626181
 20
268.8020304428278
 11
-1059.858364799335
 21
268.8020304428278
  0
LINE
  8
0
  6
DASHED
 62
     7
 10
-1060.458355626181
 20
265.0520305545865
 11
-1059.858364799335
 21
265.0520305545865
  0
LINE
  8
0
  6
DASHED
 62
     7
 10
-1060.458355626181
 20
269.552030420476
 11
-1059.858364799335
 21
269.552030420476
  0
LINE
  8
0
  6
CONTINUOUS
 62
     7
 10
-1059.858364799335
 20
268.8020304428278
 11
-1033.675107523017
 21
268.8020304428278
  0
LINE
  8
0
  6
CONTINUOUS
 62
     7
 10
-1059.858364799335
 20
265.8020305322347
 11
-1033.675107523017
 21
265.8020305322347
  0
LINE
  8
0
  6
DASHED
 62
     7
 10
-1060.458355626181
 20
265.8020305322347
 11
-1059.858364799335
 21
265.8020305322347
  0
LINE
  8
0
  6
CONTINUOUS
 62
     7
 10
-1033.675099179572
 20
265.8020536986355
 11
-1030.458367657713
 21
267.3020402217661
  0
LINE
  8
0
  6
CONTINUOUS
 62
     7
 10
-1033.675134509864
 20
268.8020492647783
 11
-1030.458361500528
 21
267.3020433957199
  0
LINE
  8
0
  6
CENTER
 62
     7
 10
-1064.423550210157
 20
1028.602059428566
 11
-1027.842649200743
 21
1028.602059428566
  0
LINE
  8
0
  6
CONTINUOUS
 62
     7
 10
-1059.858348033453
 20
267.3020446686962
 11
-1059.322448552676
 21
265.3020405954497
  0
LINE
  8
0
  6
CONTINUOUS
 62
     7
 10
-1057.288422836421
 20
269.3020628214878
 11
-1056.216623874866
 21
265.3020546749949
  0
LINE
  8
0
  6
CONTINUOUS
 62
     7
 10
-1059.358991309751
 20
269.3020642247167
 11
-1058.287192348197
 21
265.3020560782243
  0
LINE
  8
0
  6
CONTINUOUS
 62
     7
 10
-1058.323679040901
 20
269.3020473387127
 11
-1057.251891927143
 21
265.3020834087935
  0
LINE
  8
0
  6
CONTINUOUS
 62
     7
 10
-1056.253154784146
 20
269.3020340876885
 11
-1055.181367670387
 21
265.3020701577693
  0
LINE
  8
0
  6
CONTINUOUS
 62
     7
 10
-1055.21785436309
 20
269.3020614182573
 11
-1054.146055401536
 21
265.302053271765
  0
LINE
  8
0
  6
CONTINUOUS
 62
     7
 10
-1054.18259815861
 20
269.3020769010338
 11
-1053.110799197056
 21
265.3020687545415
  0
LINE
  8
0
  6
CONTINUOUS
 62
     7
 10
-1053.147330106335
 20
269.3020481672336
 11
-1052.075531144781
 21
265.3020400207407
  0
LINE
  8
0
  6
CONTINUOUS
 62
     7
 10
-1052.112029685281
 20
269.3020754978035
 11
-1051.040230723726
 21
265.3020673513106
  0
LINE
  8
0
  6
CONTINUOUS
 62
     7
 10
-1051.076761633005
 20
269.302046764005
 11
-1050.004962671451
 21
265.302038617512
  0
LINE
  8
0
  6
CONTINUOUS
 62
     7
 10
-1050.041505428524
 20
269.3020622467786
 11
-1048.969706466971
 21
265.3020541002862
  0
LINE
  8
0
  6
CONTINUOUS
 62
     7
 10
-1049.006193159675
 20
269.3020453607741
 11
-1047.934406045916
 21
265.3020814308554
  0
LINE
  8
0
  6
CONTINUOUS
 62
     7
 10
-1047.970936955193
 20
269.3020608435493
 11
-1046.89913799364
 21
265.3020526970564
  0
LINE
  8
0
  6
CONTINUOUS
 62
     7
 10
-1046.93566890292
 20
269.3020321097503
 11
-1045.863881789161
 21
265.3020681798312
  0
LINE
  8
0
  6
CONTINUOUS
 62
     7
 10
-1045.900368481864
 20
269.3020594403201
 11
-1044.82856952031
 21
265.3020512938273
  0
LINE
  8
0
  6
CONTINUOUS
 62
     7
 10
-1044.865112277384
 20
269.3020749230948
 11
-1043.79331331583
 21
265.3020667766019
  0
LINE
  8
0
  6
CONTINUOUS
 62
     7
 10
-1043.829844225109
 20
269.3020461892956
 11
-1042.758045263555
 21
265.3020380428026
  0
LINE
  8
0
  6
CONTINUOUS
 62
     7
 10
-1042.794543804053
 20
269.3020735198651
 11
-1041.722744842499
 21
265.3020653733721
  0
LINE
  8
0
  6
CONTINUOUS
 62
     7
 10
-1041.759275751777
 20
269.3020447860663
 11
-1040.687476790223
 21
265.3020366395734
  0
LINE
  8
0
  6
CONTINUOUS
 62
     7
 10
-1040.724019547297
 20
269.302060268841
 11
-1039.652220585743
 21
265.3020521223486
  0
LINE
  8
0
  6
CONTINUOUS
 62
     7
 10
-1039.688707278447
 20
269.3020433828372
 11
-1038.616920164689
 21
265.302079452918
  0
LINE
  8
0
  6
CONTINUOUS
 62
     7
 10
-1038.653451073968
 20
269.3020588656117
 11
-1037.581652112413
 21
265.3020507191188
  0
LINE
  8
0
  6
CONTINUOUS
 62
     7
 10
-1037.618194869487
 20
269.3020743483872
 11
-1036.546395907933
 21
265.3020662018942
  0
LINE
  8
0
  6
CONTINUOUS
 62
     7
 10
-1036.582882600638
 20
269.3020574623818
 11
-1035.511083639084
 21
265.302049315889
  0
LINE
  8
0
  6
CONTINUOUS
 62
     7
 10
-1035.547626396157
 20
269.3020729451567
 11
-1034.475827434603
 21
265.3020647986638
  0
LINE
  8
0
  6
CONTINUOUS
 62
     7
 10
-1034.512358343882
 20
269.3020442113576
 11
-1033.440559382328
 21
265.3020360648646
  0
LINE
  8
0
  6
CONTINUOUS
 62
     7
 10
-1033.477057922828
 20
269.3020715419279
 11
-1032.533985258113
 21
265.7824764714833
  0
LINE
  8
0
  6
CONTINUOUS
 62
     7
 10
-1032.281524742402
 20
268.7039252122052
 11
-1031.613711907828
 21
266.2116138045155
  0
LINE
  8
0
  6
CONTINUOUS
 62
     7
 10
-1031.09843174713
 20
268.1522062851381
 11
-1030.693438557543
 21
266.6407511375478
  0
LINE
  8
0
  6
DASHED
 62
     7
 10
-1061.577752089848
 20
1025.199978750941
 11
-1061.458319998939
 21
1025.189529796956
  0
LINE
  8
0
  6
DASHED
 62
     7
 10
-1061.577785605328
 20
1032.004122747462
 11
-1061.458353514419
 21
1032.014571701447
  0
LINE
  8
0
  6
DASHED
 62
     7
 10
-1060.458355626181
 20
1030.102059383862
 11
-1059.858364799335
 21
1030.102059383862
  0
LINE
  8
0
  6
DASHED
 62
     7
 10
-1060.458355626181
 20
1026.352059495621
 11
-1059.858364799335
 21
1026.352059495621
  0
LINE
  8
0
  6
DASHED
 62
     7
 10
-1060.458355626181
 20
1030.852059361511
 11
-1059.858364799335
 21
1030.852059361511
  0
LINE
  8
0
  6
CONTINUOUS
 62
     7
 10
-1059.858364799335
 20
1030.102059383862
 11
-1033.675107523017
 21
1030.102059383862
  0
LINE
  8
0
  6
CONTINUOUS
 62
     7
 10
-1059.858364799335
 20
1027.102059473269
 11
-1033.675107523017
 21
1027.102059473269
  0
LINE
  8
0
  6
DASHED
 62
     7
 10
-1060.458355626181
 20
1027.102059473269
 11
-1059.858364799335
 21
1027.102059473269
  0
LINE
  8
0
  6
CONTINUOUS
 62
     7
 10
-1033.67508889995
 20
1027.102024271587
 11
-1030.458336634353
 21
1028.602020467681
  0
LINE
  8
0
  6
CONTINUOUS
 62
     7
 10
-1033.67512907092
 20
1030.102053546305
 11
-1030.458356061585
 21
1028.602047677246
  0
LINE
  8
0
  6
CONTINUOUS
 62
     7
 10
-1059.858370550214
 20
1028.60204367531
 11
-1059.322471069437
 21
1026.602039602063
  0
LINE
  8
0
  6
CONTINUOUS
 62
     7
 10
-1057.288445353179
 20
1030.602061828103
 11
-1056.216646391625
 21
1026.60205368161
  0
LINE
  8
0
  6
CONTINUOUS
 62
     7
 10
-1059.358957762141
 20
1030.602030862552
 11
-1058.287158800587
 21
1026.60202271606
  0
LINE
  8
0
  6
CONTINUOUS
 62
     7
 10
-1058.323689709864
 20
1030.602002128754
 11
-1057.251914443901
 21
1026.602082415409
  0
LINE
  8
0
  6
CONTINUOUS
 62
     7
 10
-1056.25313308433
 20
1030.602044942098
 11
-1055.181334122776
 21
1026.602036795605
  0
LINE
  8
0
  6
CONTINUOUS
 62
     7
 10
-1055.217865032054
 20
1030.602016208299
 11
-1054.1460660705
 21
1026.602008061806
  0
LINE
  8
0
  6
CONTINUOUS
 62
     7
 10
-1054.182620675369
 20
1030.602075907647
 11
-1053.110821713815
 21
1026.602067761155
  0
LINE
  8
0
  6
CONTINUOUS
 62
     7
 10
-1053.147308406519
 20
1030.602059021643
 11
-1052.075509444965
 21
1026.60205087515
  0
LINE
  8
0
  6
CONTINUOUS
 62
     7
 10
-1052.112040354244
 20
1030.602030287844
 11
-1051.04024139269
 21
1026.602022141351
  0
LINE
  8
0
  6
CONTINUOUS
 62
     7
 10
-1051.076772301968
 20
1030.602001554045
 11
-1050.004997036005
 21
1026.6020818407
  0
LINE
  8
0
  6
CONTINUOUS
 62
     7
 10
-1050.041483728709
 20
1030.602073101189
 11
-1048.969684767156
 21
1026.602064954696
  0
LINE
  8
0
  6
CONTINUOUS
 62
     7
 10
-1049.006215676433
 20
1030.602044367389
 11
-1047.934416714879
 21
1026.602036220897
  0
LINE
  8
0
  6
CONTINUOUS
 62
     7
 10
-1047.970947624158
 20
1030.60201563359
 11
-1046.899148662604
 21
1026.602007487097
  0
LINE
  8
0
  6
CONTINUOUS
 62
     7
 10
-1046.935659050898
 20
1030.602087180734
 11
-1045.863860089344
 21
1026.602079034242
  0
LINE
  8
0
  6
CONTINUOUS
 62
     7
 10
-1045.900390998623
 20
1030.602058446934
 11
-1044.828592037069
 21
1026.602050300442
  0
LINE
  8
0
  6
CONTINUOUS
 62
     7
 10
-1044.865122946347
 20
1030.602029713135
 11
-1043.793323984793
 21
1026.602021566642
  0
LINE
  8
0
  6
CONTINUOUS
 62
     7
 10
-1043.829810677496
 20
1030.602012827131
 11
-1042.758011715942
 21
1026.602004680638
  0
LINE
  8
0
  6
CONTINUOUS
 62
     7
 10
-1042.794566320813
 20
1030.60207252648
 11
-1041.72276735926
 21
1026.602064379988
  0
LINE
  8
0
  6
CONTINUOUS
 62
     7
 10
-1041.759298268535
 20
1030.602043792681
 11
-1040.687499306981
 21
1026.602035646188
  0
LINE
  8
0
  6
CONTINUOUS
 62
     7
 10
-1040.723985999687
 20
1030.602026906677
 11
-1039.652187038133
 21
1026.602018760184
  0
LINE
  8
0
  6
CONTINUOUS
 62
     7
 10
-1039.688741643002
 20
1030.602086606026
 11
-1038.616942681448
 21
1026.602078459533
  0
LINE
  8
0
  6
CONTINUOUS
 62
     7
 10
-1038.653473590726
 20
1030.602057872226
 11
-1037.581674629173
 21
1026.602049725734
  0
LINE
  8
0
  6
CONTINUOUS
 62
     7
 10
-1037.618161321876
 20
1030.602040986221
 11
-1036.546362360322
 21
1026.602032839729
  0
LINE
  8
0
  6
CONTINUOUS
 62
     7
 10
-1036.582893269601
 20
1030.602012252422
 11
-1035.511094308047
 21
1026.602004105929
  0
LINE
  8
0
  6
CONTINUOUS
 62
     7
 10
-1035.547648912916
 20
1030.602071951771
 11
-1034.475849951363
 21
1026.602063805279
  0
LINE
  8
0
  6
CONTINUOUS
 62
     7
 10
-1034.512336644066
 20
1030.602055065767
 11
-1033.440537682512
 21
1026.602046919275
  0
LINE
  8
0
  6
CONTINUOUS
 62
     7
 10
-1033.477068591791
 20
1030.602026331968
 11
-1032.534007774872
 21
1027.082475478097
  0
LINE
  8
0
  6
CONTINUOUS
 62
     7
 10
-1032.281547259161
 20
1030.003924218818
 11
-1031.613734424586
 21
1027.51161281113
  0
LINE
  8
0
  6
CONTINUOUS
 62
     7
 10
-1031.098398199518
 20
1029.452172922973
 11
-1030.693416857727
 21
1027.940761991957
  0
LINE
  8
0
  6
CONTINUOUS
 62
     7
 10
-1061.458319998939
 20
1025.189529796956
 11
-1061.158348905392
 21
1025.163285726962
  0
LINE
  8
0
  6
CONTINUOUS
 62
     7
 10
-1061.458353514419
 20
1032.014571701447
 11
-1061.158382420872
 21
1032.040815771441
  0
LINE
  8
0
  6
DASHED
 62
     7
 10
-1061.158382420872
 20
1032.040815771441
 11
-1060.458343464192
 21
1032.102061243998
  0
LINE
  8
0
  6
CONTINUOUS
 62
     7
 10
-1063.658352479056
 20
1020.70206576752
 11
-1061.15836781235
 21
1020.70206576752
  0
LINE
  8
0
  6
CONTINUOUS
 62
     7
 10
-1063.658352479056
 20
1023.702065678113
 11
-1063.658352479056
 21
1020.70206576752
  0
LINE
  8
0
  6
DASHED
 62
     7
 10
-1062.258328106717
 20
1025.202065633409
 11
-1061.45834033759
 21
1025.202065633409
  0
LINE
  8
0
  6
DASHED
 62
     7
 10
-1062.258328106717
 20
1033.202034877413
 11
-1061.45834033759
 21
1033.202034877413
  0
LINE
  8
0
  6
DASHED
 62
     7
 10
-1061.658337279871
 20
1033.202034877413
 11
-1061.658337279871
 21
1025.202065633409
  0
LINE
  8
0
  6
DASHED
 62
     7
 10
-1062.258328106717
 20
1033.202034877413
 11
-1062.258328106717
 21
1025.202065633409
  0
LINE
  8
0
  6
CONTINUOUS
 62
     7
 10
-1061.45834033759
 20
1025.202065633409
 11
-1061.15836781235
 21
1025.202065633409
  0
LINE
  8
0
  6
DASHED
 62
     7
 10
-1061.15836781235
 20
1025.202065633409
 11
-1060.458355626181
 21
1025.202065633409
  0
LINE
  8
0
  6
CONTINUOUS
 62
     7
 10
-1061.45834033759
 20
1033.202034877413
 11
-1061.15836781235
 21
1033.202034877413
  0
LINE
  8
0
  6
DASHED
 62
     7
 10
-1061.15836781235
 20
1033.202034877413
 11
-1060.458355626181
 21
1033.202034877413
  0
LINE
  8
0
  6
CONTINUOUS
 62
     7
 10
-1063.658352479056
 20
1023.702065678113
 11
-1061.15836781235
 21
1023.702065678113
  0
LINE
  8
0
  6
DASHED
 62
     7
 10
-1061.15836781235
 20
1023.702065678113
 11
-1060.422466955375
 21
1023.702065678113
  0
LINE
  8
0
  6
CONTINUOUS
 62
     7
 10
-1060.458355626181
 20
1023.702065678113
 11
-1059.858364799335
 21
1023.702065678113
  0
LINE
  8
0
  6
DASHED
 62
     7
 10
-1061.15836781235
 20
1020.70206576752
 11
-1060.422466955375
 21
1020.70206576752
  0
LINE
  8
0
  6
CONTINUOUS
 62
     7
 10
-1060.458355626181
 20
1020.70206576752
 11
-1059.858364799335
 21
1020.70206576752
  0
LINE
  8
0
  6
DASHED
 62
     7
 10
-1062.558346408323
 20
1035.302071435921
 11
-1062.458370825365
 21
1035.302071435921
  0
LINE
  8
0
  6
CONTINUOUS
 62
     7
 10
-1062.558346408323
 20
1038.302071346514
 11
-1062.458370825365
 21
1038.302071346514
  0
LINE
  8
0
  6
DASHED
 62
     7
 10
-1063.05836165221
 20
1023.702065678113
 11
-1063.05836165221
 21
1020.70206576752
  0
LINE
  8
0
  6
DASHED
 62
     7
 10
-1062.558346408323
 20
1036.002037845724
 11
-1062.458370825365
 21
1036.002037845724
  0
LINE
  8
0
  6
CONTINUOUS
 62
     7
 10
-1062.858364709928
 20
1036.30205614733
 11
-1062.858364709928
 21
1037.302040858739
  0
LINE
  8
0
  6
CONTINUOUS
 62
     7
 10
-1062.558346408323
 20
1037.602059160345
 11
-1062.458370825365
 21
1037.602059160345
  0
LINE
  8
0
  6
CONTINUOUS
 62
     7
 10
-1063.558331119732
 20
1036.30205614733
 11
-1063.558331119732
 21
1037.302040858739
  0
LINE
  8
0
  6
CONTINUOUS
 62
     7
 10
-1061.45834033759
 20
1038.302071346514
 11
-1061.15836781235
 21
1038.302071346514
  0
LINE
  8
0
  6
CONTINUOUS
 62
     7
 10
-1061.45834033759
 20
1037.602059160345
 11
-1061.15836781235
 21
1037.602059160345
  0
LINE
  8
0
  6
CONTINUOUS
 62
     7
 10
-1061.45834033759
 20
1036.002037845724
 11
-1061.15836781235
 21
1036.002037845724
  0
LINE
  8
0
  6
CONTINUOUS
 62
     7
 10
-1061.45834033759
 20
1035.302071435921
 11
-1061.15836781235
 21
1035.302071435921
  0
LINE
  8
0
  6
DASHED
 62
     7
 10
-1062.458370825365
 20
1035.302071435921
 11
-1061.45834033759
 21
1035.302071435921
  0
LINE
  8
0
  6
DASHED
 62
     7
 10
-1062.458370825365
 20
1036.002037845724
 11
-1061.45834033759
 21
1036.002037845724
  0
LINE
  8
0
  6
DASHED
 62
     7
 10
-1062.458370825365
 20
1037.602059160345
 11
-1061.45834033759
 21
1037.602059160345
  0
LINE
  8
0
  6
DASHED
 62
     7
 10
-1062.458370825365
 20
1038.302071346514
 11
-1061.45834033759
 21
1038.302071346514
  0
LINE
  8
0
  6
CONTINUOUS
 62
     7
 10
-1061.658337279871
 20
1008.963861161291
 11
-1061.658337279871
 21
1020.70206576752
  0
LINE
  8
0
  6
CONTINUOUS
 62
     7
 10
-1062.858364709928
 20
1008.963861161291
 11
-1062.858364709928
 21
1020.70206576752
  0
LINE
  8
0
  6
CONTINUOUS
 62
     7
 10
-1062.858364709928
 20
1023.702065678113
 11
-1062.858364709928
 21
1036.602074448936
  0
LINE
  8
0
  6
CONTINUOUS
 62
     7
 10
-1061.658337279871
 20
1023.702065678113
 11
-1061.658337279871
 21
1023.902062620394
  0
LINE
  8
0
  6
DASHED
 62
     7
 10
-1061.658337279871
 20
1020.70206576752
 11
-1061.658337279871
 21
1023.702065678113
  0
LINE
  8
0
  6
DASHED
 62
     7
 10
-1062.858364709928
 20
1020.70206576752
 11
-1062.858364709928
 21
1023.702065678113
  0
LINE
  8
0
  6
DASHED
 62
     7
 10
-1061.658342328476
 20
1009.429761616102
 11
-1062.033147094457
 21
1008.407710622734
  0
LINE
  8
0
  6
DASHED
 62
     7
 10
-1061.658337279871
 20
1023.902062620394
 11
-1061.658337279871
 21
1036.602074448936
  0
LINE
  8
0
  6
CONTINUOUS
 62
     7
 10
-1062.033147094457
 20
1008.407710622734
 11
-1063.12578785856
 21
1005.428200542536
  0
LINE
  8
0
  6
CONTINUOUS
 62
     7
 10
-1059.858364441707
 20
1042.302055968516
 11
-1059.858364441707
 21
1029.802041082256
  0
LINE
  8
0
  6
CONTINUOUS
 62
     7
 10
-1065.25832801731
 20
1037.802056102627
 11
-1063.424389473333
 21
1037.802056102627
  0
LINE
  8
0
  6
CONTINUOUS
 62
     7
 10
-1065.25832801731
 20
1025.802056460255
 11
-1062.858364709928
 21
1025.802056460255
  0
LINE
  8
0
  6
DASHED
 62
     7
 10
-1060.158337324575
 20
1037.802056102627
 11
-1060.158337324575
 21
1025.802056460255
  0
LINE
  8
0
  6
CONTINUOUS
 62
     7
 10
-1063.958370780661
 20
1037.802056102627
 11
-1063.958370780661
 21
1025.802056460255
  0
LINE
  8
0
  6
DASHED
 62
     7
 10
-1060.158337324575
 20
248.8020386682686
 11
-1060.158337324575
 21
260.8020383106407
  0
LINE
  8
0
  6
DASHED
 62
     7
 10
-1062.858364709928
 20
1025.802056460255
 11
-1060.158337324575
 21
1025.802056460255
  0
LINE
  8
0
  6
DASHED
 62
     7
 10
-1063.424389473333
 20
1037.802056102627
 11
-1060.158337324575
 21
1037.802056102627
  0
LINE
  8
0
  6
CENTER
 62
     7
 10
-1721.858396449401
 20
1047.228600011147
 11
-1721.858396449401
 21
1008.659860315858
  0
LINE
  8
0
  6
CENTER
 62
     7
 10
-1738.964566593894
 20
1028.602059428566
 11
-1704.718168688735
 21
1028.602059428566
  0
LINE
  8
0
  6
CENTER
 62
     7
 10
-1461.858497836898
 20
1047.228600011147
 11
-1461.858497836898
 21
1008.659860315858
  0
LINE
  8
0
  6
CENTER
 62
     7
 10
-1478.964667981392
 20
1028.602059428566
 11
-1444.718270076232
 21
1028.602059428566
  0
LINE
  8
0
  6
CENTER
 62
     7
 10
-1478.964667981392
 20
267.3020304875311
 11
-1444.718270076232
 21
267.3020304875311
  0
LINE
  8
0
  6
CENTER
 62
     7
 10
-1738.964566593894
 20
267.3020304875311
 11
-1704.718168688735
 21
267.3020304875311
  0
LINE
  8
0
  6
CENTER
 62
     7
 10
-1721.858396449401
 20
285.9285710701124
 11
-1721.858396449401
 21
247.3598542630069
  0
LINE
  8
0
  6
CENTER
 62
     7
 10
-1461.858497836898
 20
285.9285710701124
 11
-1461.858497836898
 21
247.3598542630069
  0
LINE
  8
0
  6
CONTINUOUS
 62
     7
 10
-1771.858364441707
 20
1310.302031202787
 11
-1771.858364441707
 21
1298.302031202787
  0
LINE
  8
0
  6
CONTINUOUS
 62
     7
 10
-1411.858484068225
 20
1310.302031202787
 11
-1411.858484068225
 21
1298.302031202787
  0
LINE
  8
0
  6
CENTER
 62
     7
 10
-1721.858396449401
 20
1327.228590534009
 11
-1721.858396449401
 21
1288.65985083872
  0
LINE
  8
0
  6
CENTER
 62
     7
 10
-1461.858497836898
 20
1327.228590534009
 11
-1461.858497836898
 21
1288.65985083872
  0
LINE
  8
0
  6
CONTINUOUS
 62
     7
 10
-1416.358364441708
 20
257.802031202787
 11
-1415.358364441708
 21
256.8020312027866
  0
LINE
  8
0
  6
CONTINUOUS
 62
     7
 10
-1767.358372071102
 20
1028.802040679926
 11
-1768.358372071102
 21
1029.802040679925
  0
LINE
  8
0
  6
CONTINUOUS
 62
     7
 10
-1416.358364441707
 20
1028.802040679925
 11
-1415.358364441707
 21
1029.802040679925
  0
LINE
  8
0
  6
CONTINUOUS
 62
     7
 10
-1415.358364441707
 20
243.3020312027873
 11
-1415.358364441707
 21
256.8020312027869
  0
LINE
  8
0
  6
CONTINUOUS
 62
     7
 10
-1416.358364441708
 20
257.8020312027871
 11
-1546.343052246884
 21
257.8020312027871
  0
LINE
  8
0
  6
CONTINUOUS
 62
     7
 10
-1544.140781739071
 20
243.302031202787
 11
-1415.358364441708
 21
243.302031202787
  0
LINE
  8
0
  6
CONTINUOUS
 62
     7
 10
-1498.715087207327
 20
243.302031202787
 11
-1768.358372071103
 21
243.302031202787
  0
LINE
  8
0
  6
CONTINUOUS
 62
     7
 10
-1767.358372071103
 20
257.8020312027871
 11
-1533.431379552726
 21
257.8020312027871
  0
LINE
  8
0
  6
CONTINUOUS
 62
     7
 10
-1768.358372071102
 20
243.3020312027873
 11
-1768.358372071102
 21
256.8020312027869
  0
LINE
  8
0
  6
CONTINUOUS
 62
     7
 10
-1768.358372071102
 20
1043.302040679926
 11
-1768.358372071102
 21
1029.802040679925
  0
LINE
  8
0
  6
CONTINUOUS
 62
     7
 10
-1767.358372071103
 20
1028.802040679925
 11
-1535.982334175114
 21
1028.802040679925
  0
LINE
  8
0
  6
CONTINUOUS
 62
     7
 10
-1535.152099673746
 20
1043.302040679925
 11
-1768.358372071103
 21
1043.302040679925
  0
LINE
  8
0
  6
CONTINUOUS
 62
     7
 10
-1544.140781739071
 20
1043.302040679925
 11
-1415.358364441708
 21
1043.302040679925
  0
LINE
  8
0
  6
CONTINUOUS
 62
     7
 10
-1416.358364441708
 20
1028.802040679925
 11
-1542.66162524493
 21
1028.802040679925
  0
LINE
  8
0
  6
CONTINUOUS
 62
     7
 10
-1415.358364441707
 20
1043.302040679926
 11
-1415.358364441707
 21
1029.802040679925
  0
LINE
  8
0
  6
CONTINUOUS
 62
     7
 10
-1767.358372071105
 20
257.802031202789
 11
-1768.358372071104
 21
256.8020312027892
  0
ARC
  8
0
  6
CONTINUOUS
 62
     7
 10
-1062.458370825365
 20
1042.302055968516
 40
1
 50
0
 51
90.00000250448173
  0
ARC
  8
0
  6
CONTINUOUS
 62
     7
 10
-1070.858333953933
 20
1042.302055968516
 40
1
 50
90.00000250448173
 51
180.0000050089642
  0
ARC
  8
0
  6
CONTINUOUS
 62
     7
 10
-1070.858333953933
 20
1029.802041082256
 40
1
 50
179.9999913485851
 51
270.0000006832568
  0
ARC
  8
0
  6
CONTINUOUS
 62
     7
 10
-1070.658337011651
 20
1042.102059026234
 40
0.2000000044703482
 50
90.00000250448169
 51
180.0000050089641
  0
ARC
  8
0
  6
CONTINUOUS
 62
     7
 10
-1070.758358370975
 20
1029.90206244158
 40
0.1000000022351741
 50
179.9999913485332
 51
270.0000006831655
  0
ARC
  8
0
  6
CONTINUOUS
 62
     7
 10
-1062.658367767647
 20
1042.102059026234
 40
0.2000000044703482
 50
0
 51
90.00000250441654
  0
ARC
  8
0
  6
CONTINUOUS
 62
     7
 10
-1061.958355581477
 20
1024.302056504958
 40
0.5
 50
179.9999913485851
 51
360
  0
ARC
  8
0
  6
CONTINUOUS
 62
     7
 10
-1069.45835535796
 20
1040.902031596178
 40
1.399999964237214
 50
90.0000025044818
 51
180.000005008955
  0
ARC
  8
0
  6
CONTINUOUS
 62
     7
 10
-1069.558330940918
 20
1040.902031596178
 40
0.6999999821186071
 50
90.00000250447249
 51
180.0000050089643
  0
ARC
  8
0
  6
CONTINUOUS
 62
     7
 10
-1066.958370691255
 20
1042.562065726392
 40
1.459999994635582
 50
221.1120920582723
 51
318.8879097629674
  0
ARC
  8
0
  6
CONTINUOUS
 62
     7
 10
-1061.858334222153
 20
1040.902031596178
 40
0.6999999821186071
 50
0
 51
55.15009607588738
  0
ARC
  8
0
  6
CONTINUOUS
 62
     7
 10
-1061.858334222153
 20
1040.902031596178
 40
1.399999964237214
 50
0
 51
73.39844908519822
  0
ARC
  8
0
  6
DASHED
 62
     7
 10
-1061.858334222153
 20
1040.902031596178
 40
1.399999964237214
 50
73.39844908519822
 51
90.0000025044818
  0
ARC
  8
0
  6
DASHED
 62
     7
 10
-1061.858334222153
 20
1040.902031596178
 40
0.6999999821186071
 50
55.15009607588738
 51
90.00000250447249
  0
ARC
  8
0
  6
CONTINUOUS
 62
     7
 10
-1061.258343395308
 20
249.7020477967195
 40
0.800000017881393
 50
269.999997495519
 51
360
  0
ARC
  8
0
  6
CONTINUOUS
 62
     7
 10
-1062.926983482297
 20
1000.16147800077
 40
0.6999999821186071
 50
159.8610966185243
 51
279.0000043487785
  0
ARC
  8
0
  6
CONTINUOUS
 62
     7
 10
-1060.638714507525
 20
998.4989719468013
 40
0.6999999821186071
 50
284.9318975118217
 51
9.00000025043633
  0
ARC
  8
0
  6
DASHED
 62
     7
 10
-1060.732601833828
 20
999.0915927787492
 40
0.6999999821186071
 50
66.93610658311496
 51
98.99999933982227
  0
ARC
  8
0
  6
CONTINUOUS
 62
     7
 10
-1062.926983482297
 20
1000.16147800077
 40
2.69999984800816
 50
210.2908730920526
 51
279.0000011610649
  0
ARC
  8
0
  6
CONTINUOUS
 62
     7
 10
-1060.858349510744
 20
1012.773095666907
 40
1
 50
339.8610899020177
 51
360
  0
ARC
  8
0
  6
CONTINUOUS
 62
     7
 10
-1060.732601833828
 20
999.0915927787492
 40
0.6999999821186071
 50
9.00000025044552
 51
66.93610658311496
  0
ARC
  8
0
  6
DASHED
 62
     7
 10
-1060.638714507525
 20
998.4989719468013
 40
0.6999999821186071
 50
279.0000011610709
 51
284.9318975118217
  0
ARC
  8
0
  6
CONTINUOUS
 62
     7
 10
-1063.366802805127
 20
1004.771020710075
 40
0.6999999821186071
 50
69.8610941140293
 51
159.8610966185179
  0
ARC
  8
0
  6
CONTINUOUS
 62
     7
 10
-1062.803478847307
 20
1004.564431971115
 40
0.6999999821186071
 50
339.8610899020138
 51
69.8610941140293
  0
ARC
  8
0
  6
CONTINUOUS
 62
     7
 10
-1062.458370825365
 20
244.3020388023788
 40
1
 50
269.999997495519
 51
360
  0
ARC
  8
0
  6
CONTINUOUS
 62
     7
 10
-1070.858333953933
 20
244.3020388023788
 40
1
 50
179.9999913485786
 51
270.0000006832437
  0
ARC
  8
0
  6
CONTINUOUS
 62
     7
 10
-1070.858333953933
 20
256.8020308004557
 40
1
 50
90.00000250448173
 51
180.0000050089577
  0
ARC
  8
0
  6
CONTINUOUS
 62
     7
 10
-1070.658337011651
 20
244.5020357446607
 40
0.2000000044703482
 50
179.9999913485821
 51
270.0000006832307
  0
ARC
  8
0
  6
CONTINUOUS
 62
     7
 10
-1070.758358370975
 20
256.7020323293147
 40
0.1000000022351741
 50
90.00000250441654
 51
180.0000050089641
  0
ARC
  8
0
  6
CONTINUOUS
 62
     7
 10
-1062.658367767647
 20
244.5020357446607
 40
0.2000000044703482
 50
269.9999974955842
 51
360
  0
ARC
  8
0
  6
CONTINUOUS
 62
     7
 10
-1061.958355581477
 20
262.3020382659374
 40
0.5
 50
0
 51
180.0000050089577
  0
ARC
  8
0
  6
CONTINUOUS
 62
     7
 10
-1069.658352300242
 20
249.5020508544377
 40
0.5999999910593036
 50
179.999991348579
 51
270.0000006832524
  0
ARC
  8
0
  6
CONTINUOUS
 62
     7
 10
-1070.058346184806
 20
249.1020340816911
 40
0.800000017881393
 50
179.99999134858
 51
270.000000683247
  0
ARC
  8
0
  6
CONTINUOUS
 62
     7
 10
-1062.926983482297
 20
276.8426033233172
 40
0.6999999821186071
 50
80.99999883892905
 51
200.1389133993868
  0
ARC
  8
0
  6
CONTINUOUS
 62
     7
 10
-1060.638714507525
 20
278.5051322654692
 40
0.6999999821186071
 50
350.9999997495552
 51
80.99999883892905
  0
ARC
  8
0
  6
CONTINUOUS
 62
     7
 10
-1060.958370870068
 20
264.213247315424
 40
0.5
 50
0
 51
20.13891009797695
  0
ARC
  8
0
  6
CONTINUOUS
 62
     7
 10
-1060.458355626181
 20
273.5020501391821
 40
0.6999999821186071
 50
179.9999913485793
 51
270.0000006832586
  0
ARC
  8
0
  6
CONTINUOUS
 62
     7
 10
-1062.926983482297
 20
276.8426033233172
 40
2.69999984800816
 50
80.9999988389358
 51
149.709126907947
  0
ARC
  8
0
  6
CONTINUOUS
 62
     7
 10
-1060.732601833828
 20
277.9125114335213
 40
0.6999999821186071
 50
261.0000006601784
 51
350.9999997495552
  0
ARC
  8
0
  6
CONTINUOUS
 62
     7
 10
-1063.366802805128
 20
272.2330606140125
 40
0.6999999821186071
 50
200.1389033814828
 51
290.1389058859523
  0
ARC
  8
0
  6
CONTINUOUS
 62
     7
 10
-1062.803478847307
 20
272.439649352973
 40
0.6999999821186071
 50
290.1389058859698
 51
20.13891009797818
  0
ARC
  8
0
  6
CONTINUOUS
 62
     7
 10
-1061.258343395308
 20
249.7020477967195
 40
1.399999964237214
 50
269.9999974955283
 51
360
  0
ARC
  8
0
  6
CONTINUOUS
 62
     7
 10
-1061.058346453026
 20
264.1954860854847
 40
1.199999982118607
 50
0
 51
20.13891009797648
  0
ARC
  8
0
  6
DASHED
 62
     7
 10
-1060.458355626181
 20
278.3020454184944
 40
0.6999999821186071
 50
90.00000250447249
 51
180.0000050089597
  0
ARC
  8
0
  6
CONTINUOUS
 62
     7
 10
-1054.058361920431
 20
267.3020304875311
 40
8.999999731779106
 50
164.1191458301377
 51
195.8808505273975
  0
ARC
  8
0
  6
CONTINUOUS
 62
     7
 10
-1061.46447437061
 20
269.4090479418273
 40
1.299999973177911
 50
148.8906106981972
 51
164.1191458301384
  0
ARC
  8
0
  6
CONTINUOUS
 62
     7
 10
-1061.46447437061
 20
269.4090479418273
 40
1.299999973177911
 50
95.0000015052504
 51
119.6017623295639
  0
ARC
  8
0
  6
CONTINUOUS
 62
     7
 10
-1061.46447437061
 20
265.1950359214183
 40
1.299999973177911
 50
195.8808541698647
 51
264.9999984947506
  0
ARC
  8
0
  6
DASHED
 62
     7
 10
-1061.46447437061
 20
269.4090479418273
 40
1.299999973177911
 50
119.6017623295639
 51
148.8906106981972
  0
ARC
  8
0
  6
DASHED
 62
     7
 10
-1061.46447437061
 20
1030.709053994679
 40
1.299999973177911
 50
139.8650757855326
 51
164.119145830136
  0
ARC
  8
0
  6
DASHED
 62
     7
 10
-1054.058361920431
 20
1028.602059428566
 40
8.999999731779106
 50
164.1191458301369
 51
167.8985080639589
  0
ARC
  8
0
  6
DASHED
 62
     7
 10
-1061.46447437061
 20
1026.495019086087
 40
1.299999973177911
 50
195.8808541698647
 51
220.1349242144681
  0
ARC
  8
0
  6
DASHED
 62
     7
 10
-1061.46447437061
 20
1030.709053994679
 40
1.299999973177911
 50
95.0000015052504
 51
139.8650757855326
  0
ARC
  8
0
  6
DASHED
 62
     7
 10
-1061.46447437061
 20
1026.495019086087
 40
1.299999973177911
 50
220.1349242144681
 51
264.9999984947512
  0
ARC
  8
0
  6
CONTINUOUS
 62
     7
 10
-1062.558346408323
 20
1036.30205614733
 40
1
 50
179.9999913485851
 51
240.0000066786079
  0
ARC
  8
0
  6
CONTINUOUS
 62
     7
 10
-1062.558346408323
 20
1037.302040858739
 40
0.2999999955296518
 50
90.00000250446006
 51
180.0000050089643
  0
ARC
  8
0
  6
DASHED
 62
     7
 10
-1062.558346408323
 20
1036.30205614733
 40
0.2999999955296518
 50
179.9999913485763
 51
270.0000006832524
  0
ARC
  8
0
  6
CONTINUOUS
 62
     7
 10
-1062.558346408323
 20
1037.302040858739
 40
1
 50
90.00000250448173
 51
120.000003339306
  0
ARC
  8
0
  6
DASHED
 62
     7
 10
-1062.258328106717
 20
1036.602074448936
 40
0.5999999910593036
 50
0
 51
109.4712189224025
  0
ARC
  8
0
  6
CONTINUOUS
 62
     7
 10
-1062.558346408323
 20
1037.302040858739
 40
1
 50
120.000003339306
 51
180.0000050089512
  0
ARC
  8
0
  6
CONTINUOUS
 62
     7
 10
-1062.558346408323
 20
1036.30205614733
 40
1
 50
239.9999966606947
 51
252.5423959769939
  0
ARC
  8
0
  6
DASHED
 62
     7
 10
-1062.258328106717
 20
1036.602074448936
 40
0.5999999910593036
 50
179.9999913485763
 51
360
  0
ARC
  8
0
  6
CONTINUOUS
 62
     7
 10
-1062.258328106717
 20
1036.602074448936
 40
0.5999999910593036
 50
109.4712189224025
 51
180.0000050089643
  0
ARC
  8
0
  6
CONTINUOUS
 62
     7
 10
-1062.258328106717
 20
1008.96386116129
 40
0.5999999910593036
 50
179.9999913485763
 51
360
  0
ARC
  8
0
  6
DASHED
 62
     7
 10
-1062.258328106717
 20
1008.96386116129
 40
0.5999999910593036
 50
0
 51
180.0000050089534
  0
ARC
  8
0
  6
CONTINUOUS
 62
     7
 10
-1054.058361920431
 20
1028.602059428566
 40
8.999999731779106
 50
167.8985080639589
 51
192.1014882935749
  0
ARC
  8
0
  6
CONTINUOUS
 62
     7
 10
-1062.258328106717
 20
1014.563867097913
 40
0.5999999910593036
 50
0
 51
180.0000050089534
  0
ARC
  8
0
  6
DASHED
 62
     7
 10
-1054.058361920431
 20
1028.602059428566
 40
8.999999731779106
 50
192.1014919360404
 51
195.8808541698624
  0
ARC
  8
0
  6
DASHED
 62
     7
 10
-1062.258328106717
 20
1014.563867097913
 40
0.5999999910593036
 50
179.9999913485763
 51
360
  0
ARC
  8
0
  6
DASHED
 62
     7
 10
-1062.558346408323
 20
1036.30205614733
 40
1
 50
252.5423959769939
 51
269.999997495519
  0
CIRCLE
  8
0
  6
DASHED
 62
     7
 10
-1721.858396449401
 20
1028.602059428566
 40
2
  0
CIRCLE
  8
0
  6
DASHED
 62
     7
 10
-1721.858396449401
 20
267.3020304875311
 40
2
  0
CIRCLE
  8
0
  6
DASHED
 62
     7
 10
-1461.858497836898
 20
1028.602059428566
 40
2
  0
CIRCLE
  8
0
  6
DASHED
 62
     7
 10
-1461.858497836898
 20
267.3020304875311
 40
2
  0
INSERT
  8
0
  6
CONTINUOUS
 62
     7
  2
KOZU0003
 10
-1411.858484068225
 20
601.6260417753083
 41
5
 42
5
 43
5
  0
INSERT
  8
0
  6
CONTINUOUS
 62
     7
  2
KOZU0004
 10
-1483.304039268696
 20
1044.567409924271
 41
5
 42
5
 43
5
  0
INSERT
  8
0
  6
CONTINUOUS
 62
     7
  2
KOZU0005
 10
-1514.214436620555
 20
240.1766341172267
 41
5
 42
5
 43
5
  0
LINE
  8
0
  6
CONTINUOUS
 62
     7
 10
-1721.858396449401
 20
1375.592708270777
 11
-1461.858497836898
 21
1375.592708270777
  0
CIRCLE
  8
0
  6
CONTINUOUS
 62
     7
 10
-1721.858396449401
 20
1375.592708270777
 40
2.5
  0
CIRCLE
  8
0
  6
CONTINUOUS
 62
     7
 10
-1461.858497836898
 20
1375.592708270777
 40
2.5
  0
LINE
  8
0
  6
CONTINUOUS
 62
     7
 10
-1721.858396449401
 20
1339.928590152539
 11
-1721.858396449401
 21
1385.592708270777
  0
LINE
  8
0
  6
CONTINUOUS
 62
     7
 10
-1461.858497836898
 20
1339.928590152539
 11
-1461.858497836898
 21
1385.592708270777
  0
TEXT
  8
0
  6
CONTINUOUS
 62
     7
 10
-1612.208448001456
 20
1379.342708270777
 40
15
 41
1.061739175216012
  1
260
  0
LINE
  8
0
  6
CONTINUOUS
 62
     7
 10
-1771.858364441707
 20
1375.592708270777
 11
-1721.858396449401
 21
1375.592708270777
  0
CIRCLE
  8
0
  6
CONTINUOUS
 62
     7
 10
-1771.858364441707
 20
1375.592708270777
 40
2.5
  0
CIRCLE
  8
0
  6
CONTINUOUS
 62
     7
 10
-1721.858396449401
 20
1375.592708270777
 40
2.5
  0
LINE
  8
0
  6
CONTINUOUS
 62
     7
 10
-1771.858364441707
 20
1323.002030821317
 11
-1771.858364441707
 21
1385.592708270777
  0
TEXT
  8
0
  6
CONTINUOUS
 62
     7
 10
-1759.708381005838
 20
1379.342708270777
 40
15
 41
1.101428619452885
  1
50
  0
LINE
  8
0
  6
CONTINUOUS
 62
     7
 10
-1461.858497836898
 20
1375.592708270777
 11
-1411.858484068225
 21
1375.592708270777
  0
CIRCLE
  8
0
  6
CONTINUOUS
 62
     7
 10
-1461.858497836898
 20
1375.592708270777
 40
2.5
  0
CIRCLE
  8
0
  6
CONTINUOUS
 62
     7
 10
-1411.858484068225
 20
1375.592708270777
 40
2.5
  0
LINE
  8
0
  6
CONTINUOUS
 62
     7
 10
-1411.858484068225
 20
1323.002030821317
 11
-1411.858484068225
 21
1385.592708270777
  0
TEXT
  8
0
  6
CONTINUOUS
 62
     7
 10
-1449.708491512845
 20
1379.342708270777
 40
15
 41
1.101428619452885
  1
50
  0
LINE
  8
0
  6
CONTINUOUS
 62
     7
 10
-1771.858364441707
 20
1209.163015004188
 11
-1411.858484068225
 21
1209.163015004188
  0
CIRCLE
  8
0
  6
CONTINUOUS
 62
     7
 10
-1771.858364441707
 20
1209.163015004188
 40
2.5
  0
CIRCLE
  8
0
  6
CONTINUOUS
 62
     7
 10
-1411.858484068225
 20
1209.163015004188
 40
2.5
  0
LINE
  8
0
  6
CONTINUOUS
 62
     7
 10
-1771.858364441707
 20
1056.002040298455
 11
-1771.858364441707
 21
1219.163015004188
  0
LINE
  8
0
  6
CONTINUOUS
 62
     7
 10
-1411.858484068225
 20
1056.002040298455
 11
-1411.858484068225
 21
1219.163015004188
  0
TEXT
  8
0
  6
CONTINUOUS
 62
     7
 10
-1649.708426603389
 20
1212.913015004188
 40
15
 41
0.8454512582889736
  1
３６０（鏡寸法）
  0
LINE
  8
0
  6
CONTINUOUS
 62
     7
 10
-1768.358372071102
 20
1173.410104550155
 11
-1415.358364441707
 21
1173.410104550155
  0
CIRCLE
  8
0
  6
CONTINUOUS
 62
     7
 10
-1768.358372071102
 20
1173.410104550155
 40
2.5
  0
CIRCLE
  8
0
  6
CONTINUOUS
 62
     7
 10
-1415.358364441707
 20
1173.410104550155
 40
2.5
  0
LINE
  8
0
  6
CONTINUOUS
 62
     7
 10
-1768.358372071102
 20
1056.002040298456
 11
-1768.358372071102
 21
1183.410104550155
  0
LINE
  8
0
  6
CONTINUOUS
 62
     7
 10
-1415.358364441707
 20
1056.002040298456
 11
-1415.358364441707
 21
1183.410104550155
  0
TEXT
  8
0
  6
CONTINUOUS
 62
     7
 10
-1672.208371498897
 20
1177.160104550155
 40
15
 41
0.844012639101814
  1
３５３（フレーム寸法）
  0
LINE
  8
0
  6
CONTINUOUS
 62
     7
 10
-1836.967689757412
 20
1043.302040679925
 11
-1836.967689757412
 21
1109.216381033262
  0
LINE
  8
0
  6
CONTINUOUS
 62
     7
 10
-1836.967689757412
 20
1043.302040679925
 11
-1836.967689757412
 21
1028.802040679925
  0
CIRCLE
  8
0
  6
CONTINUOUS
 62
     7
 10
-1836.967689757412
 20
1043.302040679925
 40
2.5
  0
CIRCLE
  8
0
  6
CONTINUOUS
 62
     7
 10
-1836.967689757412
 20
1028.802040679925
 40
2.5
  0
LINE
  8
0
  6
CONTINUOUS
 62
     7
 10
-1781.058371689633
 20
1043.302040679925
 11
-1846.967689757412
 21
1043.302040679925
  0
LINE
  8
0
  6
CONTINUOUS
 62
     7
 10
-1780.058371689633
 20
1028.802040679925
 11
-1846.967689757412
 21
1028.802040679925
  0
TEXT
  8
0
  6
CONTINUOUS
 62
     7
 10
-1840.717689757412
 20
1053.516378720602
 40
15
 41
1.392500057816505
  1
14.5
 50
90.00000000000003
  0
LINE
  8
0
  6
CONTINUOUS
 62
     7
 10
-1071.858364441707
 20
1173.410104550155
 11
-1105.190440951021
 21
1173.410104550155
  0
LINE
  8
0
  6
CONTINUOUS
 62
     7
 10
-1071.858364441707
 20
1173.410104550155
 11
-1059.858364441707
 21
1173.410104550155
  0
CIRCLE
  8
0
  6
CONTINUOUS
 62
     7
 10
-1071.858364441707
 20
1173.410104550155
 40
2.5
  0
CIRCLE
  8
0
  6
CONTINUOUS
 62
     7
 10
-1059.858364441707
 20
1173.410104550155
 40
2.5
  0
LINE
  8
0
  6
CONTINUOUS
 62
     7
 10
-1071.858364441707
 20
1055.002055587046
 11
-1071.858364441707
 21
1183.410104550155
  0
LINE
  8
0
  6
CONTINUOUS
 62
     7
 10
-1059.858364441707
 20
1055.002055587046
 11
-1059.858364441707
 21
1183.410104550155
  0
TEXT
  8
0
  6
CONTINUOUS
 62
     7
 10
-1105.190440951021
 20
1177.160104550155
 40
15
 41
1.285000056028366
  1
12
  0
LINE
  8
0
  6
CONTINUOUS
 62
     7
 10
-1836.967689757412
 20
243.302031202787
 11
-1836.967689757412
 21
176.9087705351305
  0
LINE
  8
0
  6
CONTINUOUS
 62
     7
 10
-1836.967689757412
 20
257.8020312027871
 11
-1836.967689757412
 21
243.302031202787
  0
CIRCLE
  8
0
  6
CONTINUOUS
 62
     7
 10
-1836.967689757412
 20
257.8020312027871
 40
2.5
  0
CIRCLE
  8
0
  6
CONTINUOUS
 62
     7
 10
-1836.967689757412
 20
243.302031202787
 40
2.5
  0
LINE
  8
0
  6
CONTINUOUS
 62
     7
 10
-1780.058371689633
 20
257.8020312027871
 11
-1846.967689757412
 21
257.8020312027871
  0
LINE
  8
0
  6
CONTINUOUS
 62
     7
 10
-1781.058371689633
 20
243.3020312027869
 11
-1846.967689757412
 21
243.302031202787
  0
TEXT
  8
0
  6
CONTINUOUS
 62
     7
 10
-1840.717689757412
 20
176.9087705351305
 40
15
 41
1.392500057816505
  1
14.5
 50
90.00000000000003
  0
LINE
  8
0
  6
CONTINUOUS
 62
     7
 10
-1768.358372071102
 20
160.7585479260027
 11
-1415.358364441707
 21
160.7585479260027
  0
CIRCLE
  8
0
  6
CONTINUOUS
 62
     7
 10
-1768.358372071102
 20
160.7585479260027
 40
2.5
  0
CIRCLE
  8
0
  6
CONTINUOUS
 62
     7
 10
-1415.358364441707
 20
160.7585479260027
 40
2.5
  0
LINE
  8
0
  6
CONTINUOUS
 62
     7
 10
-1768.358372071102
 20
230.602031584257
 11
-1768.358372071102
 21
150.7585479260027
  0
LINE
  8
0
  6
CONTINUOUS
 62
     7
 10
-1415.358364441707
 20
230.602031584257
 11
-1415.358364441707
 21
150.7585479260027
  0
TEXT
  8
0
  6
CONTINUOUS
 62
     7
 10
-1672.208371498897
 20
164.5085479260027
 40
15
 41
0.844012639101814
  1
３５３（フレーム寸法）
  0
LINE
  8
0
  6
CONTINUOUS
 62
     7
 10
-876.3466338011082
 20
1043.302040679925
 11
-876.3466338011082
 21
243.302031202787
  0
CIRCLE
  8
0
  6
CONTINUOUS
 62
     7
 10
-876.3466338011082
 20
1043.302040679925
 40
2.5
  0
CIRCLE
  8
0
  6
CONTINUOUS
 62
     7
 10
-876.3466338011082
 20
243.302031202787
 40
2.5
  0
LINE
  8
0
  6
CONTINUOUS
 62
     7
 10
-1049.758371206835
 20
1043.302040679925
 11
-866.3466338011082
 21
1043.302040679925
  0
LINE
  8
0
  6
CONTINUOUS
 62
     7
 10
-1049.758371206835
 20
243.302031202787
 11
-866.3466338011082
 21
243.302031202787
  0
TEXT
  8
0
  6
CONTINUOUS
 62
     7
 10
-880.0966338011082
 20
622.9520350830492
 40
15
 41
1.135814001393873
  1
800
 50
90.00000000000003
  0
LINE
  8
0
  6
CONTINUOUS
 62
     7
 10
-945.7583647993357
 20
243.302031202787
 11
-945.7583647993357
 21
212.3427416533097
  0
LINE
  8
0
  6
CONTINUOUS
 62
     7
 10
-945.7583647993357
 20
267.3020304875311
 11
-945.7583647993357
 21
243.302031202787
  0
CIRCLE
  8
0
  6
CONTINUOUS
 62
     7
 10
-945.7583647993357
 20
267.3020304875311
 40
2.5
  0
CIRCLE
  8
0
  6
CONTINUOUS
 62
     7
 10
-945.7583647993357
 20
243.302031202787
 40
2.5
  0
LINE
  8
0
  6
CONTINUOUS
 62
     7
 10
-1049.758371206835
 20
243.302031202787
 11
-935.7583647993357
 21
243.302031202787
  0
TEXT
  8
0
  6
CONTINUOUS
 62
     7
 10
-949.5083647993357
 20
212.3427416533097
 40
15
 41
1.028000044822693
  1
24
 50
90.00000000000003
  0
LINE
  8
0
  6
CONTINUOUS
 62
     7
 10
-945.7583647993357
 20
1028.602059428566
 11
-945.7583647993357
 21
267.3020304875311
  0
CIRCLE
  8
0
  6
CONTINUOUS
 62
     7
 10
-945.7583647993357
 20
1028.602059428566
 40
2.5
  0
CIRCLE
  8
0
  6
CONTINUOUS
 62
     7
 10
-945.7583647993357
 20
267.3020304875311
 40
2.5
  0
LINE
  8
0
  6
CONTINUOUS
 62
     7
 10
-1015.142649582213
 20
1028.602059428566
 11
-935.7583647993357
 21
1028.602059428566
  0
LINE
  8
0
  6
CONTINUOUS
 62
     7
 10
-1015.142649582213
 20
267.3020304875311
 11
-935.7583647993357
 21
267.3020304875311
  0
TEXT
  8
0
  6
CONTINUOUS
 62
     7
 10
-949.5083647993357
 20
612.602043503695
 40
15
 41
1.285454598340121
  1
761.3
 50
90.00000000000003
  0
LINE
  8
1
  6
CONTINUOUS
 62
     7
 10
-490
 20
1375
 11
-80
 21
1375
  0
LINE
  8
1
  6
CONTINUOUS
 62
     7
 10
-490
 20
1375
 11
-490
 21
1195
  0
LINE
  8
1
  6
CONTINUOUS
 62
     7
 10
-490
 20
1315
 11
-80
 21
1315
  0
LINE
  8
1
  6
CONTINUOUS
 62
     7
 10
-280
 20
1375
 11
-280
 21
1195
  0
LINE
  8
1
  6
CONTINUOUS
 62
     7
 10
-79.99999999999997
 20
1375
 11
-79.99999999999997
 21
1195
  0
LINE
  8
1
  6
CONTINUOUS
 62
     7
 10
-490
 20
1285
 11
-80
 21
1285
  0
LINE
  8
1
  6
CONTINUOUS
 62
     7
 10
-490
 20
1345
 11
-80
 21
1345
  0
LINE
  8
1
  6
CONTINUOUS
 62
     7
 10
-490
 20
1255
 11
-80
 21
1255
  0
LINE
  8
1
  6
CONTINUOUS
 62
     7
 10
-490
 20
1225
 11
-80
 21
1225
  0
LINE
  8
1
  6
CONTINUOUS
 62
     7
 10
-490
 20
1195
 11
-80
 21
1195
  0
TEXT
  8
1
  6
CONTINUOUS
 62
     7
 10
-791.1000002622604
 20
130.0833587646484
 40
15
 41
0.8991597079429305
  1
嶋
  0
TEXT
  8
1
  6
CONTINUOUS
 62
     7
 10
-791.1000002622604
 20
110.0833587646484
 40
15
 41
0.8991597079429305
  1
﨑
  0
TEXT
  8
1
  6
CONTINUOUS
 62
     7
 10
-676.1000002622604
 20
130.0833587646484
 40
15
 41
0.8991597079429305
  1
津
  0
TEXT
  8
1
  6
CONTINUOUS
 62
     7
 10
-676.1000002622604
 20
110.0833587646484
 40
15
 41
0.8991597079429305
  1
田
  0
TEXT
  8
1
  6
CONTINUOUS
 62
     7
 10
-705.715553605196
 20
130.0833587646484
 40
15
 41
0.8991597079429305
  1
髙
  0
TEXT
  8
1
  6
CONTINUOUS
 62
     7
 10
-705.715553605196
 20
110.0833587646484
 40
15
 41
0.8991597079429305
  1
木
  0
TEXT
  8
1
  6
CONTINUOUS
 62
     7
 10
-642.315000295639
 20
112.4166411161423
 40
13.50000023841858
 41
0.6465310695811448
  1
１４．１１．０５
  0
TEXT
  8
1
  6
CONTINUOUS
 62
     7
 10
-535.8150002360344
 20
112.4166411161423
 40
13.50000023841858
 41
0.8550420127254835
  1
１：５
  0
TEXT
  8
1
  6
CONTINUOUS
 62
     7
 10
-341.5649999678135
 20
172.4166792631149
 40
13.50000023841858
 41
0.8436974637479033
  1
化粧鏡（３６０×８００）
  0
TEXT
  8
1
  6
CONTINUOUS
 62
     7
 10
-301.0650001466274
 20
120.7499998807907
 40
13.50000023841858
 41
0.8472565379369481
  1
ＵＧＭ３６３
  0
TEXT
  8
1
  6
CONTINUOUS
 62
     7
 10
-301.0650001466274
 20
69.0833181142807
 40
13.50000023841858
 41
0.8472565379369481
  1
ＵＧＭ３６３
  0
TEXT
  8
1
  6
CONTINUOUS
 62
     7
 10
-193.0000001192093
 20
1292.5
 40
15
 41
0.8739495878460026
  1
１ヶ
  0
TEXT
  8
1
  6
CONTINUOUS
 62
     7
 10
-470
 20
1322.5
 40
15
 41
0.8924949414417112
  1
フレーム着脱プレート
  0
TEXT
  8
1
  6
CONTINUOUS
 62
     7
 10
-470
 20
1292.5
 40
15
 41
0.8914870417897705
  1
鏡固定用爪セット
  0
TEXT
  8
1
  6
CONTINUOUS
 62
     7
 10
-405.3500008583069
 20
1352.5
 40
15
 41
0.8550420528700371
  1
品　名
  0
TEXT
  8
1
  6
CONTINUOUS
 62
     7
 10
-491.0973262236871
 20
1384.423418506414
 40
15
 41
0.8510313569543195
  1
同梱部材
  0
TEXT
  8
1
  6
CONTINUOUS
 62
     7
 10
-225.0000005960465
 20
1352.5
 40
15
 41
0.8897676835599893
  1
数量（仕様）
  0
TEXT
  8
1
  6
CONTINUOUS
 62
     7
 10
-193.0000001192093
 20
1322.5
 40
15
 41
0.8739495878460026
  1
１ヶ
  0
TEXT
  8
1
  6
CONTINUOUS
 62
     7
 10
-193.0000001192093
 20
1262.5
 40
15
 41
0.8739495878460026
  1
１ヶ
  0
TEXT
  8
1
  6
CONTINUOUS
 62
     7
 10
-470
 20
1262.5
 40
15
 41
0.8928571553791272
  1
鏡固定用フレームセット
  0
TEXT
  8
1
  6
CONTINUOUS
 62
     7
 10
-193.0000001192093
 20
1232.5
 40
15
 41
0.8739495878460026
  1
１ヶ
  0
TEXT
  8
1
  6
CONTINUOUS
 62
     7
 10
-470
 20
1232.5
 40
15
 41
0.8403361344537815
  1
鏡
  0
TEXT
  8
1
  6
CONTINUOUS
 62
     7
 10
-193.0000001192093
 20
1202.5
 40
15
 41
0.8739495878460026
  1
２ヶ
  0
TEXT
  8
1
  6
CONTINUOUS
 62
     7
 10
-470
 20
1202.5
 40
15
 41
0.8928571553791272
  1
鏡たわみ防止用パッキン
  0
INSERT
  8
1
  6
CONTINUOUS
 62
     7
  2
KOZU0001
 10
0
 20
0
 41
5
 42
5
 43
5
  0
INSERT
  8
1
  6
CONTINUOUS
 62
     7
  2
KOZU0002
 10
0
 20
0
 41
5
 42
5
 43
5
  0
ENDSEC
  0
EOF
